Oops, an error
Loading. Please wait.

Never Before Bass

version 1
version 1

Whole song

Interactive

5,262 views 1 this week
1 commentread comment
1 2 3 4 5
2 more votes to show rating
add to favorites
launch autoscroll
font size
0
reset
guitar tuner
backing track
0:00
0:00
Autoscroll
slow
fast
+/-
esc
set tempo
stop
Intro:
                                              x7
|----------------------|---------------------|
|----------------------|---------------------|
|--2----------------2--|---------------------|
|---------2----5-------|--------2----2--5----|


                                                              
----------------------|-------------------|
----------------------|-------------------|
--2----------------2--|--2----------------|
---------2----5-------|-------------------|


Verse:

|----------------------|----------------------|
|----------------------|----------------------|
|--5--7----------------|--5--7----------------|
|----------0--0--------|----------0--0--------|


                                                  x3
--------2--------2--------|----------------------|
--0--4--------2-----------|--2-------------------|
-----------4--------0--4--|-----------------2----|
--------------------------|-----4------5---------|


Chorus:

--------------------4--|------4-----4-----4----|
--------------4--7-----|---------4-----4-------|
-----------6-----------|-----------------------|
--7--------------------|-----------------------|


                                                 
--------------------4--|----------4-------------|
--------------4--7-----|----4--7-------7--4-----|
-----------6-----------|---------------------7--|
--7--------------------|------------------------|


                                                
----------------------|------------------------|
----------------------|---------------------5--|
--5----4----2---------|---------------2--5-----|
-----------------5----|--3----3----3-----------|


                                                 
------------------------|-----------------------|
-------4--5----2--------|-----------------------|
----5-------------5--2--|-----------------------|
------------------------|--5----5----5----5--5--|


                                              
---------------------|-----------------------|
---------------------|-----------------7--5--|
---------------------|-----------4--7--------|
------5----5----5----|--5--------------------|


                                                                
-------------------|------------------------|
--5----------------|--------7--------5------|
-------------------|--5--7-----5--7---------|
-------------------|------------------------|


Verse
Chorus

After chorus 2:

|-------------------|-------------------|
|-------------------|--3----------------|
|--3----------------|-------------------|
|-------------------|-------------------|


|-------------------|-------------------|
|--6----------------|-------------------|
|-------------------|--3----------------|
|-------------------|-------------------|                                                           

                                                            
-------------------|-------------------|-------------------|
-------------------|--3----------------|--6----------------|
--3----------------|-------------------|-------------------|
-------------------|-------------------|-------------------|


                                                              
-----------------------|
-----------------------|
-----------------------|
--0----1--3--4----5----|



Guitar solo:
                        x15
--4----4----4-----------|
------------------4--7--|
---------------6--------|
------------------------|


Verse 
Chorus

Organ solo (verse x 3)


                                                               
-------------------|------------------|----------------------||
-------------------|------------------|----------------------||
--7----------------|------------------|--5--7----7--7--------||
-------------------|------------------|----------------------||
Suggest correction
Give kudos to tab author, rate the tab!
1 2 3 4 5
comments
print report bad tab
1 comment total.
0 reply
petchav 10 Oct 26, 2014 03:41 AM

It's not :

|----------------------|----------------------|
|----------------------|----------------------|
|--5--7----------------|--5--7----------------|
|----------0--0--------|----------0--0--------|

It's that :

|----------------------|----------------------|
|----------------------|----------------------|
|--5--7-------7\-------|--5--7-------7\-------|
|----------0-----------|----------0-----------|

Cheers !
Pitch Fuzzy (Youtube & Facebook)

guest
You may want to rate the tab now too:
select rating
Wanna post a correction for this tab? Suggest correction