Oops, an error
Loading. Please wait.

Smoke On The Water Tab

938,179 views 687 this week
121 commentsread comments
1 2 3 4 5
x 571
add to favorites
launch autoscroll
font size
0
reset
how to read this tab
guitar tuner
Autoscroll
slow
fast
+/-
esc
set tempo
stop
Help us to improve Ultimate-Guitar.com Take our survey!
×
Do this with overdrive.


[Main Riff]

E|-----------------------------------------|
B|-----------------------------------------|
G|------3------5-------------3-----6-----5-|
D|--5---3------5--------5----3-----6-----5-|
A|--5-------------------5------------------|
E|-----------------------------------------|

e|--------------------------------|
B|--------------------------------|
G|----------3----5---3------------|
D|-----5----3----5---3------5-----|
A|-----5--------------------5-----|
E|--------------------------------|(x5)
Suggest correction
comments
print report bad tab
121 comments total. Showing first comments. show 1 bad comment
+5 reply
Shorty311 10 Dec 29, 2001 12:00 AM

you could do it in the middle two strings open 3 5 open 365 open 3 53 open that is all on the middle two strings

-1 reply
6(sic)6 10 Jan 08, 2002 12:00 AM

or you could do the same on bottom e.

guest
You may want to rate the tab now too:
select rating
Wanna post a correction for this tab? Suggest correction