Oops, an error
Loading. Please wait.
We have an official Smoke On The Water tab made by UG professional guitarists. Check out the tab »
×

Smoke On The Water Tab

version 1
version 1

Solo

  • This is the solo for the alternative version, not the regular LP version.

Whole song

440,845 views 369 this week
43 commentsread comments
1 2 3 4 5
x 75
add to favorites
launch autoscroll
font size
0
reset
how to read this tab
guitar tuner
backing track
0:00
0:00
Autoscroll
slow
fast
+/-
esc
set tempo
stop
Author
[Solo]

e|----------------|-----------------------|----------------------|
B|----------------|--15-\-13--------------|----------------13~~--|
G|----------12~~--|----------15-12~~--15--|---------12-15--------|
D|--12--15--------|-----------------------|--12-15---------------|
A|----------------|-----------------------|----------------------|
E|----------------|-----------------------|----------------------|

e|----------------------------|----------------------------------|
B|----------------------------|----------------------------------|
G|--15-14-12--14--12------12--|--------------------12------12~~--|
D|--------------------15------|--15--12--15----15------15--------|
A|----------------------------|----------------------------------|
E|----------------------------|----------------------------------|
 
e|------------------|--------------|-----------------------------|
B|--------13----13--|--13----------|---------13------------------|
G|--12-15----15-----|------12--15--|--12--12----15--12-----------|
D|------------------|--------------|--------------------15--12---|
A|------------------|--------------|-----------------------------|
E|------------------|--------------|-----------------------------| 

e|---------------------|-----------------------------------------|
B|---------------------|-----------------------------------------|
G|--15-12--------------|-----------------------------------------|
D|--------15-12--------|-------------------13-12-----------------|
A|--------------15-13--|-----13--12-15--13-------15--13h15p13~~--|
E|---------------------|--15-------------------------------------|

e|-------------------------------|-------------------------------|
B|-------------------------------|-------------------------------|
G|-------------------------------|--------12----12---------------|
D|-------------------------------|--12-15----12----15-12---------|
A|--15-13-12--13-12--13-12-------|------------------------15-13--|
E|-------------------------15-\--|-------------------------------|

e|--------------------|------------------------------------------|
B|--------------------|----------------------15--15-13----13-----|
G|--------------------|-------12-------12-15-----------15----12--|
D|--------12-12-12-12-|-12-15----12-15---------------------------|
A|-15-13--------------|------------------------------------------|
E|--------------------|------------------------------------------|

e|--------------------------------------------------------15~~---|
B|---------13----------13----------13--------------13-15---------|
G|--12-15-----15p12-------15p12-------15p12----15----------------|
D|---------------------------------------------------------------|
A|---------------------------------------------------------------|
E|---------------------------------------------------------------|

e|-15-13-15-13-15~~--13-15-13------------|-----------------------|
B|----------------------------15-13-15~~-|-----------------------|
G|---------------------------------------|-----------------------|
D|---------------------------------------|-12-15-12--------------|
A|---------------------------------------|----------15--15-13----|
E|---------------------------------------|--------------------15-|

e|---------------------------------------------------------------|
B|-----13----13-15--15-15-15--15-15-14-14-14-14--13-13-13--------|
G|--12----15-----------------------------------------------12~~--|
D|---------------------------------------------------------------|
A|---------------------------------------------------------------|
E|---------------------------------------------------------------|


************************************

| h  Hammer-on
| p  Pull-off
| \  Slide down
| ~  Vibrato

************************************
Suggest correction
comments
print report bad tab
43 comments total. Showing first comments.
0 reply
Wiegraf 50 Jul 26, 2005 08:00 PM

This is freakin' awesome.

+6 reply
Astaldo 82 Dec 23, 2005 10:35 PM

pretty good. i listened to the song and ich heard some differences. little pieces. sometimes he hammers a few more times. but, great tab. thanks man !

+4 reply
Astaldo 82 Jan 05, 2006 10:56 PM

not that wrong ..

guest
You may want to rate the tab now too:
select rating
Wanna post a correction for this tab? Suggest correction