Oops, an error
Loading. Please wait.

Smoke On The Water Tab

version 3
version 3

Solo

  • This is the solo for the alternative version, not the regular LP version.
82 views 21 this week
no commentswrite comment
1 2 3 4 5
2 more votes to show rating
add to favorites
launch autoscroll
font size
0
reset
how to read this tab
guitar tuner
Autoscroll
slow
fast
+/-
esc
set tempo
stop
Help us to improve Ultimate-Guitar.com Take our survey!
×
Author
Difficulty
intermediate
About this tab version
This is the solo for the alternative version, not the regular LP version. Was this info helpful? Yes No
Alternative version solo, check this video (time stamped): https://youtu.be/BFshSEerrns?t=2m55s


[Solo]

e|----------------------------------------------------------------------------|
B|-----------------------------------------------3----------------------------|
G|-5b7-5b7-5b7~ (hold last bend a tad longer)-5b7---3--5b7p3------------------|
D|----------------------------------------------------------5~----------------|
A|----------------------------------------------------------------------------|
E|----------------------------------------------------------------------------|


e|------------------------------------------------------------------------------------------------------|
B|---------6--------------------------------------------------------------------------3-6-6-6b8~--------|
G|---3-5b7---5-3-5--3-5-5b7~-------3-5b7-5b7-5b7-5-3~-2-3-5-3h5p3p2---------3-3-3b5~--------------------|
D|-5-----------------------------5----------------------------------5-3~--5-----------------------------|
A|------------------------------------------------------------------------------------------------------|
E|------------------------------------------------------------------------------------------------------|


                                   Stacato-------------------------------------------|
   |---------|  |--------------|  |-----| |------| |-------------| |-----------------|
e|-----3----------------3--6b8-6--3-5-6-8-5-6-8-10-8-10-11-8-10-11-13-10-11-13b15~---|
B|-3-6--3-6-8~--3-6----3-3-----------------------------------------------------------|
G|------------------5b7--------------------------------------------------------------|
D|-----------------------------------------------------------------------------------|
A|-----------------------------------------------------------------------------------|
E|-----------------------------------------------------------------------------------|


   |------------------------------|        |Statcato------------------------------|
e|-13-10-13-10-11--------------------------8pb10-8pb10-8pb10-8-8-6-6-5-5-3-3--3~--|
B|---------------13-10-11-13-11-13b15~---------------------------------------6----|
G|--------------------------------------------------------------------------------|
D|--------------------------------------------------------------------------------|
A|--------------------------------------------------------------------------------|
E|--------------------------------------------------------------------------------|


  |-----------------------------|     |--------------------   Slow bend up from 13 to
15--| on last bend
e|----------------------------------------------------13----------------------------------|
B|-----3-4~-3-4-5-4h6p4p3---4-6b8~---8-11-13~-11-13b15--13b15p13-13b15--------------------|
G|--3-5-------------------5---------------------------------------------------------------|
D|-5--------------------------------------------------------------------------------------|
A|----------------------------------------------------------------------------------------|
E|----------------------------------------------------------------------------------------|


Bring bend down from 10 to 8 slowly after hitting 10 a couple times.
                              |----------------------------------------------------------|
e|-8pb10(x14)-8b10p8---6b8---------------------------------------------------------------|
B|-------------------8----------6-8-6-5----------------------------------------------|
G|----------------------------7---------7-6-5-3--5-3~-------------------------------------|
D|----------------------------------------------5-----\5------------------------------------|
A|---------------------------------------------------------------------------------------|
E|---------------------------------------------------------------------------------------|


************************************

| x   Dead note
| g   Grace note
| (n) Ghost note
| h   Hammer-on
| p   Pull-off
| r   Release
| >   Accented note
| t   Tapping
| b   Bend
| br  Bend release
| pb  Pre-bend
| pbr Pre-bend release
| /   Slide up
| \   Slide down
| ~   Vibrato
| s   Slap
| P   Pop
| PM  Palm mute
| TR  Trill
| N   Tremolo

************************************
Suggest correction
Give kudos to tab author, rate the tab!
1 2 3 4 5
comments
print report bad tab
guest
You may want to rate the tab now too:
select rating
Wanna post a correction for this tab? Suggest correction