Oops, an error
Loading. Please wait.

Smoke On The Water Bass Tab

version 2
version 2
104,412 views 45 this week
6 commentsread comments
1 2 3 4 5
x 12
add to favorites
launch autoscroll
font size
0
reset
guitar tuner
Autoscroll
slow
fast
+/-
esc
set tempo
stop
Help us to improve Ultimate-Guitar.com Take our survey!
×
Author
Difficulty
intermediate
[Verse 1]
G|----------------------------------------------------------|
D|------5------5-----------------5---3--------------3-------|
A|-----------------------3-5-----------3--------3-5---5-3---|
E|-3-3-----3-3----3-3--6-----3-3---------1-3--6-----------6-|

G|----------------------------------------|
D|------5------5-----5-5-5-------5--3-----|
A|------------------------------------3---|
E|-3-3----3-3----3-3--3-3---3-3---------1-|

G|---------------------------------------------------------------|
D|----------------------5------5----3/5-3----------------5--3----|
A|---5-4-3-1-----------------------------5-3-1----------------3--|
E|-3---------3-1-2-3-3----3-3-----3------------3-1--3-3---------1|

G|-----------------------------------------------|
D|---3/5-3-------------5------5----------3-5-----|
A|---------5-3---3-------------------3-5-----3-5-|
E|-3-----------6---3-3----3-3----3-3-------------|

G|--------------------------------|
D|------5--3--------3/5-3---------|
A|-----------3------------5-3-----|
E|-3-3---------1--3-----------6-3-|

[Chorus]
G|-------------------------------------------------|
D|-------------------------------------------------|
A|-(3)---------------------------------------------|
E|-------------(4)---------------------------------|

G|---------------------------------------------------|
D|---------------------------------------------------|
A|----1---1----------1---1-------(3)-----------------|
E|-3----3---3-1-3--3---3---3-1------------(4)--0-1-2-|

G|----------------------------------------------------------|
D|----------------------------------------------------------| second time, instead of 3301, play 3012.
A|--------------------3-3-3-1-------------------------------|  (x2)
E|3-3-3-3-3-3-3-3-3-3-3-3-3-3-3-3-3-3-3-3-----3-3-3-3-3-0-1-|

[Verse 2]
G|-----------------------------------------------------------------|
D|------5-------5-------5----------------5--3----------------------|
A|---------------------------3-5--------------3------1---3---5---3-|
E|-3-3-----3-3-----3-3-----6-----1--3-3---------1--3---3---3---3---|

G|-------------------------------------------------------|
D|------5------5-----5-5-5-------5--3---3--5-------------|
A|------------------------------------3------5---3-5-----|
E|-3-3----3-3----3-3--3-3---3-3----------------6-----1--2|

G|------------------------------------------------------3---|
D|------5------5-----5-5-5-------5--3-3-------------3-----3-|
A|--------------------------------------3-------3-5---5-----|
E|-3-3----3-3----3-3--3-3---3-3-----------1-3-6-------------|

G|--------------------------------------------------------------|
D|-5---5------5-----5------5---------5--3-------------3---3/5\3-|
A|----------------------------------------3-------3-5-----------|
E|---3----3-3---3-3----3-3-----3-3-3--------1--3--------3-------|

[Chorus]
G|-------------------------------------------------|
D|-------------------------------------------------|
A|-(3)---------------------------------------------|
E|-------------(4)---------------------------------|

G|---------------------------------------------------|
D|---------------------------------------------------|
A|----1---1----------1---1-------(3)-----------------|
E|-3----3---3-1-3--3---3---3-1------------(4)--0-1-2-|

G|----------------------------------------------------------|
D|----------------------------------------------------------| second time, instead of 3301, play 3012.
A|--------------------3-3-3-1-------------------------------|  (x2)
E|3-3-3-3-3-3-3-3-3-3-3-3-3-3-3-3-3-3-3-3-----3-3-3-3-3-0-1-|

[Guitar Solo]
(Some of the rhythms get a little tricky, so listen closely to the CD, Mp3, or whatever.)
G|---------------------------------------------------|
D|---------3/5-3-------------------------3/5-3-------|
A|-----3-5-------5-3-1---------1-3-5-3-6-------6-3---|
E|-3-6-----------------3-1-2-3---------------------6-|

G|----------------------------------------------------|
D|---3/5-33---------3-5-------5-----3-----------------|
A|----------5-1-3-5-----1-3-----3-5---1-3-1-------1-5-|
E|-3------------------------3---------------3-1-3-----|

G|-------------------3------------------------------|
D|---5-3---------1/5--5-5-3------3--5---3-----------|
A|-3-----6-3-1-3------------5-3-5---------5-3-1---1-|
E|------------------------------------3---------3---|

G|----------3---------------------------------------|
D|-----3-4-5--5-5-3-----3-5-3-----------------3-5-3-|
A|-3-5--------------3-6-------6-3-1--1--3--5--------|
E|----------------------------------3--3--3--3-3-3--|

G|-------------3-------------------------------------------------------------|
D|---------3-----3-5-3----------------1-3-5-3-1-3-3/5-5-3--------------------|
A|---1-3-5---5---------5-3-1---1-2-3----------------------5-3-1--1--(3)------|
E|-3-------------------------3----------------------------------3--------(1)-|
   again, this line is condensed for space...

G|------------------------------------------------------------------------|
D|------------------------------------------------------------------------|
A|---------------------------3331----------------------------3331---------|
E|-0-1-2-33333333333333333333-----333331233333333333330123333-----3333012-|

[Verse 3]
G|-------------------------------------------------------------------|
D|-----5------5------5--------------5----5---3--------------5------5-|
A|---------------------1--3--5-------------------5---3---------------|
E|-3-3----3-3----3-3------------3-3----3---3---3---3---3-3-----3-3---|

G|------------------------------------------------------------|
D|-----5-----3---------5------3------------5-3-------5------5-|
A|-------3-5---1-3----------3----1--3--5-5-----5--------------|
E|-3-3-------------3-3----1-----3--3--3----------3-3----3-3---|

G|-------------------------------------------------------------|
D|-----5-------5------5--3-------------5-3-----------5------5--|
A|---------5--------5------3-----1-3-5-----5-3-1---------------|
E|-3-3---3---3----3----------1-3-----------------3-3----3-3----|

G|--------------------------------------------------|
D|---5-3-------------------3--------------3/5-3-----|
A|-------5-3-1-------1-3-5---3------1-3-5-------5---|
E|-3-----------3-1-3------------1-3---------------3-|

[Chorus]
G|-------------------------------------------------|
D|-------------------------------------------------|
A|-(3)---------------------------------------------|
E|-------------(4)---------------------------------|

G|---------------------------------------------------|
D|---------------------------------------------------|
A|----1---1----------1---1-------(3)-----------------|
E|-3----3---3-1-3--3---3---3-1------------(4)--0-1-2-|

G|----------------------------------------------------------|
D|----------------------------------------------------------| second time, instead of 3301, play 3012.
A|--------------------3-3-3-1-------------------------------|  (x2)
E|3-3-3-3-3-3-3-3-3-3-3-3-3-3-3-3-3-3-3-3-----3-3-3-3-3-0-1-|

[Verse]
G|---------|      |-------------5----3-------------|
D|-----5-5-| (x4) |-----5-5--------------5-3-------|                            
A|---------|      |---------3-3---1----------5-1-3-| 
E|-3-3-----|      |-3-3----------------3-----------|

 (Play the part above 2 times, but second time, the second part changes to this)
G|-------------5----3---------------|
D|-----5-5--------------------------|
A|---------3-3---1------1-5-4-3-3-1-|
E|-3-3----------------3-------------|

 [Outro] x2
G|---------|      |-----5-5---3-------------|
D|-----5-5-| (x5) |-------------------------|
A|---------|      |-3-3-----1---1-------1-5-|
E|-3-3-----|      |---------------3-1-3-----|
Suggest correction
comments
print report bad tab
6 comments total. Showing first comments.
+1 reply
mayhem101 10 Mar 26, 2006 02:28 PM

Nice tab man. It help that u had the sheet music lol.

+1 reply
fire stick 10 Apr 06, 2006 06:49 PM

he can't of had the sheet music, if he did where is the missing fills????

0 reply
fire stick 10 Apr 06, 2006 06:50 PM

it don' thave the fill

guest
You may want to rate the tab now too:
select rating
Wanna post a correction for this tab? Suggest correction