Oops, an error
Loading. Please wait.
We have an official Smoke On The Water tab made by UG professional guitarists. Check out the tab »
×

Smoke On The Water tab

823 views 12 this week
no commentswrite comment
1 2 3 4 5
3 more votes to show rating
add to favorites
×
Save as Personal and add changes to this tab that will be seen only by you. Learn more ›
×
You can save this tab as Personal to edit and correct it or add notes. All changes will be seen only by you. Learn more »
launch autoscroll
font size
0
reset
how to read this tab
guitar tuner
backing track
0:00
0:00
edit
Autoscroll
slow
fast
+/-
esc
set tempo
stop
[Intro]

(Guitar 1)
e|-----------------|---------------|----------------|------------------|
B|-----------------|---------------|----------------|------------------|
G|--0---3---5----0-|---3---6-5-----|-0---3---5----3-|---0----(0)-------|x5
D|--0---3---5----0-|---3---6-5-----|-0---3---5----3-|---0----(0)-------|
A|-----------------|---------------|----------------|------------------|
E|-----------------|---------------|----------------|------------------|

e|----------------|---------------|----------------|--------------------|
B|----------------|---------------|----------------|--------------------|
G|-0---3---5----0-|---3---6-5-----|-0---3---5----3-|---0----(0)---------|
D|-0---3---5----0-|---3---6-5-----|-0---3---5----3-|---0----(0)---5\----|
A|----------------|---------------|----------------|--------------5\----|
E|----------------|---------------|----------------|--------------------|


[Verse]

(Guitar  1)
  PM----------------------------------------------|     PM------------|  
e|-----------------|-----------------|-----------------|------------------|
B|-----------------|-----------------|-----------------|------------------|
G|-----------------|-----------------|-----------------|------------------|
D|-----5-------5---|-----5-------5---|-5---5---3---3---|-----5---5---5----|
A|---5-------5-----|---5-------5-----|---5-------3-----|---5-------5------|
E|-3-------3-------|-3-------3-------|-----------------|-3----------------|

  PM------------------------------------------------------------------|
e|-----------------|-----------------|-----------------|------------------|
B|-----------------|-----------------|-----------------|------------------|
G|-----------------|-----------------|-----------------|------------------|
D|-----5---5---5---|-----5-------5---|-----5-------5---|-----5-------3----|
A|---5-------5-----|---5-------5-----|---5-------5-----|---5-------3------|
E|-3---------------|-3-------3-------|-3-------3-------|-3-------1--------|

  PM------------------------------------------------------------------|
e|-----------------|-----------------|-----------------|------------------|
B|-----------------|-----------------|-----------------|------------------|
G|-----------------|-----------------|-----------------|------------------|
D|-----5-------5---|-----5-------5---|-----5-------5---|-----5---3---3----|
A|---5-------5-----|---5-------5-----|---5-------5-----|---5-------3------|
E|-3-------3-------|-3-------3-------|-3-------3-------|-3----------------|

  PM------------------------------------------------------------------------------------|
e|-----------------|-----------------|-----------------|-----------------|-------------------|
B|-----------------|-----------------|-----------------|-----------------|-------------------|
G|-----------------|-----------------|-----------------|-----------------|-------------------|
D|-----5-------5---|-----5-------5---|-----5-------5---|-----5---3---3---|-----5-------5-----|
A|---5-------5-----|---5-------5-----|---5-------5-----|---5-------3-----|---5-------5-------|
E|-3-------3-------|-3-------3-------|-3-------3-------|-3---------------|-3-------3---------|


[Chorus]

(Guitar  1)
e|------------|------------|---------------|------------|------------|---------------|
B|------------|------------|---------------|------------|------------|---------------|
G|-------5----|------------|---------------|------------|-------5----|---------------|
D|----5-------|-------6----|------5--------|---(5)------|----5-------|-------6-------|
A|-3----------|----6-------|----5----------|------------|-3----------|----6----------|
E|------------|-4----------|-3-------------|------------|------------|-4-------------|
e|-----------------|---------------|----------------|------------------|
B|-----------------|---------------|----------------|------------------|
G|--0---3---5----0-|---3---6-5-----|-0---3---5----3-|---0----(0)-------|
D|--0---3---5----0-|---3---6-5-----|-0---3---5----3-|---0----(0)-------|
A|-----------------|---------------|----------------|------------------|
E|-----------------|---------------|----------------|------------------|

e|----------------|---------------|----------------|--------------------|
B|----------------|---------------|----------------|--------------------|
G|-0---3---5----0-|---3---6-5-----|-0---3---5----3-|---0----(0)---5\----|
D|-0---3---5----0-|---3---6-5-----|-0---3---5----3-|---0----(0)---5\----|
A|----------------|---------------|----------------|--------------5\----|
E|----------------|---------------|----------------|--------------------|


[Verse]

(Guitar  1)
e|------------------|-----------------|-----------------|------------------|
B|------------------|-----------------|-----------------|------------------|
G|------------------|-----------------|-----------------|------------------|x3
D|------5-------5---|-----5-------5---|-----5-------3---|-----5-------5----|
A|----5-------5-----|---5-------5-----|---5-------3-----|---5-------5------|
E|--3-------3-------|-3-------3-------|-3-------1-------|-3-------3--------|


[Chorus]

e|------------|------------|---------------|------------|------------|---------------|
B|------------|------------|---------------|------------|------------|---------------|
G|-------5----|------------|---------------|------------|-------5----|---------------|
D|----5-------|-------6----|------5--------|---(5)------|----5-------|-------6-------|
A|-3----------|----6-------|---------------|------------|-3----------|----6----------|
E|------------|-4----------|-3-------------|------------|------------|-4-------------|

e|-----------------|---------------|----------------|------------------|
B|-----------------|---------------|----------------|------------------|
G|--0---3---5----0-|---3---6-5-----|-0---3---5----3-|---0----(0)-------|
D|--0---3---5----0-|---3---6-5-----|-0---3---5----3-|---0----(0)-------|
A|-----------------|---------------|----------------|------------------|
E|-----------------|---------------|----------------|------------------|

e|----------------|---------------|----------------|--------------------|
B|----------------|---------------|----------------|--------------------|
G|-0---3---5----0-|---3---6-5-----|-0---3---5----3-|---0----(0)-------10|
D|-0---3---5----0-|---3---6-5-----|-0---3---5----3-|---0----(0)---12----|
A|----------------|---------------|----------------|--------------------|
E|----------------|---------------|----------------|--------------------|


[Guitar Solo]

(Guitar  1)                                     half tone                
e|---------------------------------|---------------------------|------------------------------------|
B|-----------------13pb15------r13p|-11---------11b------------|-------11-11b13~~~~r---11-10--------|
G|-12~~-----(12)-------------------|----12~~~------------------|-10-12------------------------------|
D|---------------------------------|------------------------12-|------------------------------------|
A|---------------------------------|---------------------------|------------------------------------|
E|---------------------------------|---------------------------|------------------------------------|
(Guitar  2)
   PM---------------------------------------------------------------------------------------|
e|---------------------------------|---------------------------|------------------------------------|
B|---------------------------------|---------------------------|------------------------------------|
G|---------------------------------|---------------------------|--------5-------------------5-------|
D|------5-----5--------------------|--5-----5-------------5----|-----5------------------5-----------|
A|----5---5------5-----------------|-----5--------------5------|--3----------------3----------------|
E|--3------------------------------|-------------3-------------|------------------------------------|  

                                                                                 
(Guitar  1)
e|------------------------------|----------------------------------------------|
B|------------------------------|--------------------------------------------8-|
G|-12-14-12h14p12\10-12-10-8-10-|-10-10pb12--(10)r-10-10pb12-------(10)r-------|
D|------------------------------|----------------------------------------------|
A|------------------------------|----------------------------------------------|
E|------------------------------|----------------------------------------------|
(Guitar  2) 
   PM-----------------------------------------------------------------------|
e|------------------------------|----------------------------------------------|
B|------------------------------|----------------------------------------------|
G|------------------------------|----------------------------------------------|
D|--------5----------------3h-5-|-------------------5----------------------5---|
A|-----5-----------------5------|--------------5-------------------------5-----|
E|--3-----------------3---------|--3---------------------------------3---------|


(Guitar  1)                              
e|--------------------------------------8-------|----------------8-----------------------------------|
B|-11-11-----pb13--11-11b13-------(11)r---8-11--|--------------8---11-10-8---------------------------|
G|----------------------------------------------|-10b12--(10)r-------------11--10p8----10-8-7--------|
D|----------------------------------------------|-----------------------------------10--------10-8-7-|
A|----------------------------------------------|----------------------------------------------------|
E|----------------------------------------------|----------------------------------------------------|
(Guitar  2)
   PM-----------------------------------------------------------------------|
e|----------------------------------------------|----------------------------------------------------|
B|----------------------------------------------|----------------------------------------------------|
G|----------------------------------------------|----------------------5--------------------3--------|
D|------------------5---------------------5-----|----------------5---------(5)----------5------------|
A|---------5----------------------------5-------|----------3----------------------3------------------|
E|--3-------------------------------3-----------|----------------------------------------------------|


(Guitar  1)
e|-------------------|--------------------------|
B|-------------------|--------------------------|
G|-------------8-7-5-|-3b5--(3)r3~------5-3-2-3-|
D|----8-7-10-8-------|--------------------------|
A|-10----------------|--------------------------|
E|-------------------|--------------------------|
(Guitar  2)
   PM----------------------------------------|
e|-------------------|--------------------------|
B|-------------------|--------------------------|
G|-------------------|--------------------------|
D|------5--------5---|-------------5--------5---|
A|----5--------5-----|-------5----------3-5-----|
E|--3--------3-------|-3------------------------|


(Guitar  1)       
e|---------------------------|-----------3---------3-3------------------------|
B|---------------------------|---------3---6b8---------6-5-3------------------|
G|-2-3-2-0-------------(0)---|-5b7---------------------------6-5p3---5-----3--|
D|---------------------------|-------------------------------------5----------|
A|---------------------------|------------------------------------------------|
E|---------------------------|------------------------------------------------|
(Guitar  2)
  PM---------------------------------------------------------------|
e|---------------------------|------------------------------------------------|
B|---------------------------|------------------------------------------------|
G|---------------------------|---------------------5---------------5----------|
D|-----5----------------5----|-----------5-------------5-------5--------------|
A|-3-5------3----5-----------|------3----------------------3------------------|
E|---------------------------|------------------------------------------------|


(Guitar  1)
e|---------------------------------------------|-3-------6-8b10---------|-8b10-----8-6-8----------|
B|-----------------------------------------3-6-|---3-6-8----------------|----------------8~~----8-|
G|-5b7-------5b7-------5b7-------5b7-----------|------------------------|-------------------------|
D|---------------------------------------------|------------------------|-------------------------|
A|---------------------------------------------|------------------------|-------------------------|
E|---------------------------------------------|------------------------|-------------------------|
(Guitar  2)
       PM--------------------------------------------------------------------------------------|
e|---------------------------------------------|------------------------|-------------------------|
B|---------------------------------------------|------------------------|-------------------------|
G|---------------------------------------------|------------------------|-------------------------|
D|-------------------5---------------------5---|-----5--------------5---|------------5--------5---|
A|---------5-----------------------------5---5-|---5-------------5------|----------5--------5-----|
E|------3------------------------3-------------|-3-------3--------------|-------3--------3--------|


(Guitar  1)                                                                
e|------------------8--------8------8----8-10-|-11-13---13b15-------(13)r-----13b15-|
B|-11-------------8---11--8----11-8---11------|-------------------------------------|
G|----10b12-----------------------------------|-------------------------------------|
D|--------------------------------------------|-------------------------------------|
A|--------------------------------------------|-------------------------------------|
E|--------------------------------------------|-------------------------------------|
(Guitar  2)
   PM----------------------------------------------------------------------|
e|--------------------------------------------|-------------------------------------|
B|--------------------------------------------|-------------------------------------|
G|------------------5--------------------3----|-------------------------------------|
D|-------------5--------------------5-------5-|-------5---------------------5-------|
A|--3---------------------------3-------------|-----5------------5----3---5---------|
E|--------------------------------------------|--3----------------------------------|


(Guitar  1)
e|------13-----pb15------13-13b15--(13)r~~~13--|-----pb15------13-10-------------------|
B|---------------------------------------------|---------------------13-13b15----------|
G|---------------------------------------------|---------------------------------------|
D|---------------------------------------------|---------------------------------------|
A|---------------------------------------------|---------------------------------------|
E|---------------------------------------------|---------------------------------------|
(Guitar  2)
e|---------------------------------------------|---------------------------------------|
B|---------------------------------------------|---------------------------------------|
G|-----------------------------------5---------|--------------------------------5------|
D|--------------------5------------------------|-------------------5-------------------|
A|---3-----------------------------------------|------------3--------------------------|
E|---------------------------------------------|---------------------------------------|


(Guitar  1)
e|------------------------------------|----8-6-8-8b10--------------|-(8)-8-8-8-8-8-8-8r-|-9---9---9---9--8---|
B|---------6--------------------------|-/8-------------------------|--------------------|------------------6-|
G|-5b7-------5pb6b-(5)r5-3-5-3---5----|----------------------------|--------------------|--------------------|
D|---------------------------------5--|----------------------------|--------------------|--------------------|
A|------------------------------------|----------------------------|--------------------|--------------------|
E|------------------------------------|----------------------------|--------------------|--------------------|
(Guitar  2)
e|------1-----------------------------|--1-------------------------|--------------------|--------------------|
B|------1-----------------------------|--1-------------------------|--------------------|--------------------|
G|------x-----------------------------|--0-------------------------|--0----3---5-----0--|---3-------6-5------|
D|------3-----------------------------|------3---------------------|--0----3---5-----0--|---3-------6-5------|
A|------x-----------------------------|----------------------------|--------------------|--------------------|
E|------1-----------------------------|-----------------1---(1)/---|--------------------|--------------------|


(Guitar  1)
e|-----------------------|---------------------|
B|-(6)b8-----------------|-(6)r----------------|
G|-----------------------|---------------------|
D|-----------------------|---------------------|
A|-----------------------|---------------------|
E|-----------------------|---------------------|
(Guitar  2)
e|-----------------------|---------------------|
B|-----------------------|---------------------|
G|--0--------3----5----3-|-(3)-----------------|
D|--0--------3----5----3-|-(3)--5----(5)-------|
A|-----------------------|------5----(5)-------|
E|-----------------------|---------------------|

[(Guitar  1)
   PM----------------------------------------------------------------|
e|-----------------|-----------------|-----------------|-----------------|
B|-----------------|-----------------|-----------------|-----------------|
G|-----------------|-----------------|-----------------|-----------------|
D|-----5-------5---|-----5-------5---|-----5-------3---|-----5-3---------|
A|---5-------5-----|---5-------5-----|---5-------3-----|---5-------5-----|
E|-3-------3-------|-3-------3-------|-3-------1-------|-3-------3-------|

  PM--------------------------------------------------------------------|
e|-----------------|-----------------|-----------------|-------------------|
B|-----------------|-----------------|-----------------|-------------------|
G|-----------------|-----------------|-----------------|-------------------|
D|-----5-------5---|-----5-------5---|-----5-------3---|-----5-5-------5---|
A|---5-------5-----|---5-------5-----|---5-------3-----|---5---------5-----|
E|-3-------3-------|-3-------3-------|-3-------1-------|-3---------3-------|

  PM------------------------------------------------------------------|
e|-----------------|-----------------|-----------------|------------------|
B|-----------------|-----------------|-----------------|------------------|
G|-----------------|-----------------|-----------------|------------------|
D|-----5-------5---|-----5-------5---|-----5---3---3---|-----5-------5----|
A|---5-------5-----|---5-------5-----|---5-------3-----|---5-------5---5--|
E|-3-------3-------|-3-------3-------|-3---------------|-3-------3--------|

  PM------------------------------------------------------------------|
e|-----------------|-----------------|-----------------|------------------|
B|-----------------|-----------------|-----------------|------------------|
G|-----------------|-----------------|-----------------|------------------|
D|-----5-------5---|-----5-------5---|-----5-------3---|-----5-------5----|
A|---5-------5---5-|---5---5---5---5-|---5---5---3---3-|---5---5---5------|
E|-3-------3-------|-3-------3-------|-3-------1-------|-3-------3-----3--|


[Verse]

(Guitar 1)
   PM----------------------------------------------------------------|
e|-----------------|-----------------|-----------------|-----------------|
B|-----------------|-----------------|-----------------|-----------------|
G|-----------------|-----------------|-----------------|-----------------|
D|-----5-------5---|-----5-------5---|-----5-------3---|-----5-3---------|
A|---5-------5-----|---5-------5-----|---5-------3-----|---5-------5-----|
E|-3-------3-------|-3-------3-------|-3-------1-------|-3-------3-------|

  PM--------------------------------------------------------------------|
e|-----------------|-----------------|-----------------|-------------------|
B|-----------------|-----------------|-----------------|-------------------|
G|-----------------|-----------------|-----------------|-------------------|
D|-----5-------5---|-----5-------5---|-----5-------3---|-----5-5-------5---|
A|---5-------5-----|---5-------5-----|---5-------3-----|---5---------5-----|
E|-3-------3-------|-3-------3-------|-3-------1-------|-3---------3-------|

  PM------------------------------------------------------------------|
e|-----------------|-----------------|-----------------|------------------|
B|-----------------|-----------------|-----------------|------------------|
G|-----------------|-----------------|-----------------|------------------|
D|-----5-------5---|-----5-------5---|-----5---3---3---|-----5-------5----|
A|---5-------5-----|---5-------5-----|---5-------3-----|---5-------5---5--|
E|-3-------3-------|-3-------3-------|-3---------------|-3-------3--------|

  PM------------------------------------------------------------------|
e|-----------------|-----------------|-----------------|------------------|
B|-----------------|-----------------|-----------------|------------------|
G|-----------------|-----------------|-----------------|------------------|
D|-----5-------5---|-----5-------5---|-----5-------3---|-----5-------5----|
A|---5-------5---5-|---5---5---5---5-|---5---5---3---3-|---5---5---5------|
E|-3-------3-------|-3-------3-------|-3-------1-------|-3-------3-----3--|


[Post-chorus]

(Guitar  1)
e|------------|--------------|-------3------|------------|------------|------------|
B|------------|--------------|--------------|------------|------------|------------|
G|-------5----|--------------|--------------|------------|-------5----|------------|
D|----5-------|-------6------|----5----5----|-(5)--------|----5-------|-------6----|
A|-3----------|----6---------|----5---------|------------|-3----------|----6-------|
E|------------|-4------------|-3------------|------------|------------|-4----------|
   
e|-----------------|----------------|----------------|--------------------|
B|-----------------|----------------|----------------|--------------------|
G|--0---3---5----0-|---3---6-5------|-0---3---5----3-|-(3)-0----(0)-------|
D|--0---3---5----0-|---3---6-5------|-0---3---5----3-|-(3)-0----(0)-------|
A|-----------------|----------------|----------------|--------------------|
E|-----------------|----------------|----------------|--------------------|

  PM----------------------------------------------|
e|-----------------|-----------------|-----------------|--------------------|
B|-----------------|-----------------|-----------------|--------------------|
G|-----------------|-----------------|-----------------|--------------------|
D|-----5-------5---|-----5-------5---|-5---5---3---3---|---5---------(5)\---|
A|---5-------5-----|---5-------5-----|---5-------3-----|---5---------(5)\---| 
E|-3-------3-------|-3-------3-------|-----------------|--------------------|



************************************

| x    Dead note
| (n)  Ghost note
| h    Hammer-on
| p    Pull-off
| r    Release
| b    Bend
| pb   Pre-bend
| /    Slide up
| \    Slide down
| ~    Vibrato
| PM  - palm muting

************************************

            
            
Suggest correction
Creating personal tab
Creating personal tab
You can edit any tab online and save it as your Personal.

You can edit, replace or remove any tab part or add personal notes – all changes will be seen only by you.

Personal tabs can be accessed anytime from any device, even offline.
Learn more »
Give kudos to tab author, rate the tab!
1 2 3 4 5
comments
print report bad tab
guest
You may want to rate the tab now too:
select rating
Wanna post a correction for this tab? Suggest correction