Oops, an error
Loading. Please wait.
We have an official Smoke On The Water tab made by UG professional guitarists. Check out the tab »
×

Smoke On The Water tab

619 views 27 this week
no commentswrite comment
1 2 3 4 5
x 3
add to favorites
×
Save as Personal and add changes to this tab that will be seen only by you. Learn more ›
×
You can save this tab as Personal to edit and correct it or add notes. All changes will be seen only by you. Learn more »
launch autoscroll
font size
0
reset
how to read this tab
guitar tuner
backing track
0:00
0:00
edit
Autoscroll
slow
fast
+/-
esc
set tempo
stop
About this tab version
Different chords and solo. I've yet controlled all the other version. Was this info helpful? Yes No
[Intro] (x5)
e|-------------------------|
B|-------------------------|
G|---3-5---3-6-5---3-5-3---|
D|-5-3-5-5-3-6-5-5-3-5-3-5-|
A|-5-----5-------5-------5-|
E|-------------------------|

[Verse 1] (x4)
PM G5                            F5     G5
e|-------------------------------------------------|
B|-------------------------------------------------|
G|-------------------------------------------------|
D|-----5-----5-----5-----5-----5-----3-----5-----5-|
A|---5-----5-----5-----5-----5-----3-----5-----5---|
E|-3-----3-----3-----3-----3-----1-----3-----3-----|

[Chorus] (Play Chorus and then x2 Riff Intro)
   C5    Ab5   G5  C5    Ab5
e|---------------|-------------|
B|---------------|-------------|
G|-----5---------|-----5-------|
D|---5-------6-5-|---5-------6-|
A|-3-------6---5-|-3-------6---|
E|-------4-----3-|-------4-----|

[Verse 2] (X4)
PM G5                            F5     G5
e|-------------------------------------------------|
B|-------------------------------------------------|
G|-------------------------------------------------|
D|-----5-----5-----5-----5-----5-----3-----5-----5-|
A|---5-----5-----5-----5-----5-----3-----5-----5---|
E|-3-----3-----3-----3-----3-----1-----3-----3-----|

[Chorus] (Play Chorus and then x2 Riff Intro)
   C5    Ab5   G5  C5    Ab5
e|---------------|-------------|
B|---------------|-------------|
G|-----5---------|-----5-------|
D|---5-------6-5-|---5-------6-|
A|-3-------6---5-|-3-------6---|
E|-------4-----3-|-------4-----|

[Solo]
             Gm
e|-----------------------------|
B|-----------b15r13p11-----11b-|
G|----10-12~-----------12~-----|
D|-12--------------------------|
A|-----------------------------|
E|-----------------------------|

            F                          Gm
e|---------------------------------------------------------------|
B|----------11-11b13-11-10-8-10-8h10p8----8----------------------|
G|----10-12----------------------------10---10-8-10-10-12-10-12~-|
D|-12------------------------------------------------------------|
A|---------------------------------------------------------------|
E|---------------------------------------------------------------|

                             F                                            Gm
e|------------------------------------------------------------------------------|
B|----11-13-11-13~-13~----11----11-13-11-10-------------------------------------|
G|-12------------------12----12-------------12-11-10-------10-------------------|
D|---------------------------------------------------13-10----13-12p10----------|
A|---------------------------------------------------------------------13-12-10-|
E|------------------------------------------------------------------------------|

e|-----------------------------------------|
B|-----------------------------------------|
G|----------8-7----------------------------|
D|-8-7-10-8-----10-8b10r8-10-8-7-8-7-8-7-5-|
A|-----------------------------------------|
E|-----------------------------------------|

   F                         Gm
e|-----------------------------------------------|
B|---6-8-6-8-8-6---------------------------------|
G|-7-------------7-6-5-------5-3-5b7-5b7-5b7-5b7-|
D|---------------------8-7-5---------------------|
A|-----------------------------------------------|
E|-----------------------------------------------|

e|-------------6-8b10-8b10-8-6-8----|
B|---6-8---6-8-------------------8~-|
G|-7-----7--------------------------|
D|----------------------------------|
A|----------------------------------|
E|----------------------------------|

e|--------------------------------------------------------|
B|----11----11-13-11----13-11----13-11-13-15-16-18-18b20~-|
G|-12----12----------12-------12--------------------------|
D|--------------------------------------------------------|
A|--------------------------------------------------------|
E|--------------------------------------------------------|

      C
e|----------15-----------------------------|
B|-18b20-18----18-18b20-18b20-18-15-13-15~-|
G|-----------------------------------------|
D|-----------------------------------------|
A|-----------------------------------------|
E|-----------------------------------------|
   F
e|-------------------------------------------|
B|-----6----------------------13-11-13-13b15-|
G|-5b7---5b6r5p3-5-3----11/12----------------|
D|-------------------5~----------------------|
A|-------------------------------------------|
E|-------------------------------------------|

   Gm (Guitar 2 plays intro)
e|-----------------------------------------------------------|
B|-b15-b15-b15-b15-b15-b15-b15-b15-r14-r14-r14-r13-13--------|
G|----------------------------------------------------10b12~-|
D|-----------------------------------------------------------|
A|-----------------------------------------------------------|
E|-----------------------------------------------------------|

[Bridge]
e|-------------------------|
B|-------------------------|
G|---3-5---3-6-5---3-5-3---|
D|-5-3-5-5-3-6-5-5-3-5-3-5-|
A|-5-----5-------5-------5-|
E|-------------------------|

[Verse 3]
PM G5                            F5     G5
e|-------------------------------------------------|
B|-------------------------------------------------|
G|-------------------------------------------------|
D|-----5-----5-----5-----5-----5-----3-----5-----5-|
A|---5-----5-----5-----5-----5-----3-----5-----5---|
E|-3-----3-----3-----3-----3-----1-----3-----3-----|

[Chorus/Outro] (Play Chorus and then x4 Riff Intro/Bridge, last fading)
   C5    Ab5   G5  C5    Ab5
e|---------------|-------------|
B|---------------|-------------|
G|-----5---------|-----5-------|
D|---5-------6-5-|---5-------6-|
A|-3-------6---5-|-3-------6---|
E|-------4-----3-|-------4-----|

***********************************

| h   - hammer-on
| p   - pull-off
| b   - bend
| pb  - pre-bend
| r   - bend release 
| /   - Slide up
| \   - Slide down
| ~   - vibrato
| PM  - palm muting
| x   - dead note
|(n)  - ghost note

***********************************

            
            
Suggest correction
Creating personal tab
Creating personal tab
You can edit any tab online and save it as your Personal.

You can edit, replace or remove any tab part or add personal notes – all changes will be seen only by you.

Personal tabs can be accessed anytime from any device, even offline.
Learn more »
Give kudos to tab author, rate the tab!
1 2 3 4 5
comments
print report bad tab
guest
You may want to rate the tab now too:
select rating
Wanna post a correction for this tab? Suggest correction