Oops, an error
Loading. Please wait.

Space Truckin bass

version 3
version 3

Whole song

Interactive

1,004 views 3 this week
3 commentsread comments
1 2 3 4 5
x 3
add to favorites
×
Save as Personal and add changes to this tab that will be seen only by you. Learn more ›
×
You can save this tab as Personal to edit and correct it or add notes. All changes will be seen only by you. Learn more »
launch autoscroll
font size
0
reset
guitar tuner
backing track
0:00
0:00
edit
Autoscroll
slow
fast
+/-
esc
set tempo
stop
Author
Difficulty
intermediate
Tab: Lopez017.
Tuning: Standard.


INTRO
******
G|-------------|------|---(X4)|
D|*------------|------|------*|
A|*------5-3---|-3--5-|------*|
E|--3-5------5-|------|-3-5---|    
       
------------------------
00:29
VERSE 1
********
G|-----------|----------|----------------|--------(X2)|
D|*----------|----------|----------------|-----------*|
A|*----------|----------|--3-3--3-5-5--5-|-----------*|
E|--55-5-5-5-|--5-5-5-5-|----------------|--55-5-5-5--|
  
00:44
G|---------|-------------|-------2-|----------|----------|
D|---4-5-7-|---7-5-------|---4-5---|-2222220--|-2222222--|
A|-5-------|-------7-5---|-5-------|--------2-|--------3-|
E|---------|-5---------8-|---------|----------|----------|  

------------------------
00:53
CHORUS
*******
G|------------(4x)|-----------(3x)|---------|
D|*---2-1-0-------|---------------|---------|
A|*-0-------3-2-1-|---2-1-0-------|---------|
E|----------------|-0-------3-2-1-|-0-1-2-3-|
   
------------------------
01:08
VERSE 2
********
G|----------|----------|----------------|-------(X2)|
D|*---------|----------|----------------|----------*|
A|*---------|----------|--3-3--3-5-5--5-|----------*|
E|-55-5-5-5-|--5-5-5-5-|----------------|-55-5-5-5--|

01:23
G|---------|---------------|---------|---99-7-------|------------4-|
D|---4-5-7-|---7-5---------|---4-5-7-|--------9-7-5-|--------5-7---|
A|-5-------|-------7---3-4-|-5-------|-7------------|--7-5-7-------|
E|---------|-5-------5-----|---------|--------------|--------------|  

------------------------
01:32
CHORUS
*******
G|------------(4x)|-----------(3x)|---------|
D|*---2-1-0-------|---------------|---------|
A|*-0-------3-2-1-|---2-1-0-------|---------|
E|----------------|-0-------3-2-1-|-0-1-2-3-|

------------------------
01:47
VERSE 3
********
G|-------------|------|---(X4)|
D|*------------|------|------*|
A|*------5-3---|-3--5-|------*|
E|--3-5------5-|------|-3-5---|

------------------------
02:15
BREAK                                                     s
G|-----------------|-----------------|-----------------|-7\9--7-------------|
D|-----------------|-----------------|-----------------|--------9-8-7-5-----|
A|-7-7-7-7-7-7-7-7-|-7-7-7-7-7-7-7-7-|-7-7-7-7-7-7-7-7-|----------------7-5-|
E|-----------------|-----------------|-----------------|--------------------|

------------------------
02:22
CHORUS
*******
G|------------(4x)|-----------(3x)|---------|
D|*---2-1-0-------|---------------|---------|
A|*-0-------3-2-1-|---2-1-0-------|---------|
E|----------------|-0-------3-2-1-|-0-1-2-3-|

------------------------
02:37     02:51
SOLO      DRUMS
*****     ******
G|------(X24)|
D|-----------|
A|-----------|
E|-3--5------|

------------------------
03:21
BREAK
******                   
G|-----------(3x)|---------9-|---9999789--|-9977-----|----------|
D|*-------------*|-----------|*----------*|-----9977-|-55-------|
A|*-77777---5-6-*|-7777777---|*----(X2)--*|----------|---7755---|
E|--------8------|-----------|------------|----------|-------77-|
  
------------------------
03:36
CHORUS
*******
G|------------(4x)|-----------(3x)|---------|
D|*---2-1-0-------|---------------|---------|
A|*-0-------3-2-1-|---2-1-0-------|---------|  repeat to
E|----------------|-0-------3-2-1-|-0-1-2-3-|  fade out



            
            
Suggest correction
Creating personal tab
Creating personal tab
You can edit any tab online and save it as your Personal.

You can edit, replace or remove any tab part or add personal notes – all changes will be seen only by you.

Personal tabs can be accessed anytime from any device, even offline.
Learn more »
Give kudos to tab author, rate the tab!
1 2 3 4 5
comments
print report bad tab
3 comments total.
0 reply
Pastafarian96 872 Feb 26, 2014 09:01 PM

It looks right but I'm too lazy to try to read it, too crammed together.

0 reply
lopez017 801 Feb 26, 2014 11:20 PM

Give it try it's worth the read, apologies for the "crammed together".. keep on rock'n!

0 reply
ayreon77 21,833 Aug 09, 2014 09:27 AM

i think this is the better of the bass tabs, it has more info, but it is laid out not good, if its ok by you lopez017 can i fix it were it is easier and laid out better. i,m doing a cover version and i need to be able to read it. but other than that this looks good.

guest
You may want to rate the tab now too:
select rating
Wanna post a correction for this tab? Suggest correction