Oops, an error
Loading. Please wait.

Speed King bass

version 2
version 2

Whole song

1,093 views 1 this week
no commentswrite comment
1 2 3 4 5
2 more votes to show rating
add to favorites
×
Save as Personal and add changes to this tab that will be seen only by you. Learn more ›
×
You can save this tab as Personal to edit and correct it or add notes. All changes will be seen only by you. Learn more »
launch autoscroll
font size
0
reset
guitar tuner
backing track
0:00
0:00
edit
Autoscroll
slow
fast
+/-
esc
set tempo
stop
Author
                     Speedking
                   By deep purple
Tabbed by Yenka24                              normal GDAE tuning


The song starts with some improvisation you can do something weird or simply do
nothing then comes the main part:

Riff 1 ( 4 times )
G----------------3--1-----------------------------------------------|
D-1-3--1-3---1-3-------3-1-3----------------------------------------|
A-------------------------------------------------------------------|
E-------------------------------------------------------------------|



Riff 2 ( 3 times )
G-3-1-3-1-3-1-3-----------------------------------------------------|
D---------------0-1-2-3---------------------------------------------|
A-------------------------------------------------------------------|
E-------------------------------------------------------------------|



Riff 3  ( 1 time )
G-1---3-------------------------------------------------------------|
D---1---------------------------------------------------------------|
A-------------------------------------------------------------------|
E-------------------------------------------------------------------|




The whole thing repeats 2 times then comes a piano part then you can play:

G-------------------------------------------------------------------|
D-1-3---3-1-3-------------------------------------------------------|
A-------------------------------------------------------------------|
E-------------------------------------------------------------------|
Over and over again
Then play riff 1 2 and 3 again and at the end you can repeat riff 2 and 3 and then the 
song ends with some guitar work
this is my first tab hope you like it it
s very easy to play but sounds pretty cool
Disclaimer: I do not own any of the rights of this song

            
            
Suggest correction
Creating personal tab
Creating personal tab
You can edit any tab online and save it as your Personal.

You can edit, replace or remove any tab part or add personal notes – all changes will be seen only by you.

Personal tabs can be accessed anytime from any device, even offline.
Learn more »
Give kudos to tab author, rate the tab!
1 2 3 4 5
comments
print report bad tab
guest
You may want to rate the tab now too:
select rating
Wanna post a correction for this tab? Suggest correction