Oops, an error
Loading. Please wait.

Strange Kind Of Woman bass

version 1
version 1

Whole song

Interactive

9,460 views 27 this week
3 commentsread comments
1 2 3 4 5
x 3
add to favorites
×
Save as Personal and add changes to this tab that will be seen only by you. Learn more ›
×
You can save this tab as Personal to edit and correct it or add notes. All changes will be seen only by you. Learn more »
launch autoscroll
font size
0
reset
guitar tuner
backing track
0:00
0:00
edit
Autoscroll
slow
fast
+/-
esc
set tempo
stop
Author
-------------------------------------------------------------------------------
		      Strange Kind Of Woman - Deep Purple
-------------------------------------------------------------------------------

 Tabbed By : dvanwyk
 e-mail: dustinvanwyk@yahoo.com

 Tuning:Standard
 Intro (0.02)
G|-----------------------------------|
D|-----------------------------------|
A|-----------------------------------|
E|7x--------------2~-----------------|

 Verse x4
G|-----------------------------------------------|
D|-----------------------------------------------|
A|-----------------------------------------------|
E|7-7-77-7--7-7-77-7--5-5--3-3-7-7-77-7----------|

 Chorus
G|---------------------------------------------------------|
D|---------------------------------------------------------|
A|--5-------------5------------------------3h5-/7-5--------|
E|7---7--7-5-7--7---7--7-5-7---5-5-3-3-7-7-----------------|

G|-----------------------------------------------------------|
D|----------------------------------------------7/9---11-9---|
A|--5-------------5------------------------7h9---------------|
E|7---7--7-5-7--7---7--7-5-7---5-5-3-3-7-7-------------------|

 Verse x2
G|-----------------------------------------------|
D|-----------------------------------------------|
A|-----------------------------------------------|
E|7-7-77-7--7-7-77-7--5-5--3-3-7-7-77-7----------|

 Chorus
G|---------------------------------------------------------|
D|---------------------------------------------------------|
A|--5-------------5------------------------3h5-/7-5--------|
E|7---7--7-5-7--7---7--7-5-7---5-5-3-3-7-7-----------------|

G|-----------------------------------------------------------|
D|----------------------------------------------7/9---11-9---|
A|--5-------------5------------------------7h9---------------|
E|7---7--7-5-7--7---7--7-5-7---5-5-3-3-7-7-------------------|

 Bridge
G|--------------------7---------------------------------------|
D|-----121212-----------7-------7---7----9-----9--------------|
A|10~----------10/5~------5-------7--------9-----9------------|
E|--------------------------5~---------7-----7----------------|

G|----------12------7-----------------------------------------|
D|-----1212-----------7-------7---7----9-----9----------------|
A|10~-----------5~------5-------7--------9-----9--------------|
E|------------------------5~---------7-----7------------------|

G|-----------------------|
D|-----------------------|
A|----------7~-----------|
E|5~---------------------|
 x4
G|-----------------------------------------------|
D|-----------------------------------------------|
A|-----------------------------------------------|
E|7-7-77-7--7-7-77-7--5-5--3-3-7-7-77-7----------|

 Chorus
G|---------------------------------------------------------|
D|---------------------------------------------------------|
A|--5-------------5------------------------3h5-/7-5--------|
E|7---7--7-5-7--7---7--7-5-7---5-5-3-3-7-7-----------------|

G|-----------------------------------------------------------|
D|----------------------------------------------7/9---11-9---|
A|--5-------------5------------------------7h9---------------|
E|7---7--7-5-7--7---7--7-5-7---5-5-3-3-7-7-------------------|

G|-----------------------|
D|-----------------------|
A|-----------------------|
E|2~---------------------|

 Verse x4
G|-----------------------------------------------|
D|-----------------------------------------------|
A|-----------------------------------------------|
E|7-7-77-7--7-7-77-7--5-5--3-3-7-7-77-7----------|

 Chorus
G|---------------------------------------------------------|
D|---------------------------------------------------------|
A|--5-------------5------------------------3h5-/7-5--------|
E|7---7--7-5-7--7---7--7-5-7---5-5-3-3-7-7-----------------|

G|-----------------------------------------------------------|
D|----------------------------------------------7/9---11-9---|
A|--5-------------5------------------------7h9---------------|
E|7---7--7-5-7--7---7--7-5-7---5-5-3-3-7-7-------------------|

 Outro x7
G|-----------------------------------------------|
D|-----------------------------------------------|
A|-----------------------------------------------|
E|7-7-77-7--7-7-77-7--5-5--3-3-7-7-77-7----------|

            
            
Suggest correction
Creating personal tab
Creating personal tab
You can edit any tab online and save it as your Personal.

You can edit, replace or remove any tab part or add personal notes – all changes will be seen only by you.

Personal tabs can be accessed anytime from any device, even offline.
Learn more »
Give kudos to tab author, rate the tab!
1 2 3 4 5
comments
print report bad tab
3 comments total.
0 reply
Foshstar 10 May 08, 2013 11:53 AM

My god, this is miles out!! The verse goes to open E not third fret G and the bridge is nothing like it. I wouldn't know where to begin to correct it.

I'll post the correct version soon.

0 reply
Foshstar 10 May 08, 2013 11:58 AM

Verse x4
G|-----------------------------------------------|
D|-----------------------------------------------|
A|-----------------------------------------------|
E|7-7-77-7--7-7-77-7--5-5--0-0-7-7-77-7----------|

Chorus
G|---------------------------------------------------------|
D|---------------------------------------------------------|
A|--5-------------5------------------------3h5-/7-5--------|
E|7---7--7-5-7--7---7--7-5-7---5-5-0-0-7-7-----------------|

G|-----------------------------------------------------------|
D|----------------------------------------------7/9---11-9---|
A|--5-------------5------------------------7h9---------------|
E|----7--7-5-7--7---7--7-5-7---5-5-0-0-7-7-------------------|

0 reply
bass50611 12,435 Apr 20, 2017 05:48 AM

Clearly wrong in so many places and what happened to the solo?????

guest
You may want to rate the tab now too:
select rating
Wanna post a correction for this tab? Suggest correction