Oops, an error
Loading. Please wait.

Strange Kind Of Woman bass

version 2
version 2

Whole song

Interactive

64 views 9 this week
no commentswrite comment
1 2 3 4 5
3 more votes to show rating
add to favorites
×
Save as Personal and add changes to this tab that will be seen only by you. Learn more ›
×
You can save this tab as Personal to edit and correct it or add notes. All changes will be seen only by you. Learn more »
launch autoscroll
font size
0
reset
guitar tuner
backing track
0:00
0:00
edit
Autoscroll
slow
fast
+/-
esc
set tempo
stop
Strange Kind Of Woman
Second single release for heavy rock band Deep Purple in 1971. 
Reached number 8 UK Charts. Bass performance Roger Glover.
Tab by bass50611 Welcome to my tab as I see the bassline. Not exact 
More of a simplified version but it does fit the song.

Symbol ‘.’ Are pause dots

Intro:
  ‘.’                                  ‘.’
G|----|------------------------------|----|
D|----|-THIS BIT GUITAR SOLO NO BASS-|----|
A|----|------------------------------|----|
E|-7--|------------------------------|--2-|

Verse 1:
G|------------------------------------------------------------------|
D|------------------------------------------------------------------|
A|-------5-------------5----------------------------------------5---|
E|-7--7-7--7---5-7--7-7--7---5--5---0--0---7--7--7--7---5-7--7-7--7-|

G|---------------------------------------------------------------------|
D|---------------------------------------------------------------------|
A|---------5----------------------------------------5-------------5----|
E|-5-7--7-7--7---5--5---0--0---7--7--7--7---5-7--7-7--7---5-7--7-7--7--|

G|--------------------------------------------------------------------|
D|--------------------------------------------------------------------|
A|------------------------------------5-------------5-----------------|
E|-5--5---0--0---7--7--7--7---5-7--7-7--7---5-7--7-7--7---5--5---0--0-|

G|------------|
D|------------|
A|------------|
E|-7--7--7--7-|

Chorus 1:
G|--------------------------------------------------|
D|--------------------------------------------------|
A|-5-----------5----------------------------------9-|
E|---7---5--7----7---5--7---5--5---0--0---7--7--7---|

                                                   (Break)
G|----------------------------------------------------|
D|--------------------------------------------------9-|
A|-5-----------5----------------------------------9---|
E|---7---5--7----7---5--7---5--5---0--0---7--7--7-----|

Verse 2:
G|------------------------------------------------------------------|
D|------------------------------------------------------------------|
A|-------5-------------5----------------------------------------5---|
E|-7--7-7--7---5-7--7-7--7---5--5---0--0---7--7--7--7---5-7--7-7--7-|

G|----------------------------------------|
D|----------------------------------------|
A|---------5------------------------------|
E|-5-7--7-7--7---5--5---0--0---7--7--7--7-|

Chorus 2:
G|--------------------------------------------------|
D|--------------------------------------------------|
A|-5-----------5----------------------------------9-|
E|---7---5--7----7---5--7---5--5---0--0---7--7--7---|

G|--------------------------------------------------|
D|--------------------------------------------------|
A|-5-----------5----------------------------------9-|
E|---7---5--7----7---5--7---5--5---0--0---7--7--7---|

Bridge:                                                           ‘.’ ‘.’
G|----7-------7-------------------------7-------7------------------------|
D|-5----5----7--7--5----7--9-----9---5----5----7--7--5-----7--9--9-------|
A|--------5-----------------9---9-----------5----------------------9-----|
E|--------------------5-------7-------------------------5--------------7-|

      (Play Quavers)
G|-----------------------------------|
D|-----------------------------------|
A|-----------------------------------|
E|-0-0-0-0-0-0-0-0---0-0-0-0-0-0-0-0-|

Solo:                                         (Play This Bit x4)
G|--------------------------------------------------------|
D|--------------------------------------------------------|
A|--------------------------------------------------------|
E|-5-7--7--7--7---5-7--7--7--7---5--5---0--0---7--7--7--7-|

Chorus 3:
G|--------------------------------------------------|
D|--------------------------------------------------|
A|-5-----------5----------------------------------9-|
E|---7---5--7----7---5--7---5--5---0--0---7--7--7---|
                                                      ‘.’      ‘.’
G|----------------------------------------------------------------|
D|----------------------------------------------------------------|
A|-5-----------5--------------------------------------------------|
E|---7---5--7----7---5--7---5--5---0--0---7--7--7--7---7--------2-|

Verse 3:                                          (Play This Bit x2)
G|--------------------------------------------------------|
D|--------------------------------------------------------|
A|--------------------------------------------------------|
E|-5-7--7--7--7---5-7--7--7--7---5--5---0--0---7--7--7--7-|

Chorus 3:
G|--------------------------------------------------|
D|--------------------------------------------------|
A|-5-----------5----------------------------------9-|
E|---7---5--7----7---5--7---5--5---0--0---7--7--7---|

                                                      (Break)
G|--------------------------------------------------------|
D|--------------------------------------------------------|
A|-5-----------5------------------------------------------|
E|---7---5--7----7---5--7---5--5---0--0---7--7--7--7---7\-|

Outro Solo:                                 (Repeat To Fade/End)
G|--------------------------------------------------------|
D|--------------------------------------------------------|
A|--------------------------------------------------------|
E|-5-7--7--7--7---5-7--7--7--7---5--5---0--0---7--7--7--7-|

Symbol ‘.’ Are pause dots


            
            
Suggest correction
Creating personal tab
Creating personal tab
You can edit any tab online and save it as your Personal.

You can edit, replace or remove any tab part or add personal notes – all changes will be seen only by you.

Personal tabs can be accessed anytime from any device, even offline.
Learn more »
Give kudos to tab author, rate the tab!
1 2 3 4 5
comments
print report bad tab
guest
You may want to rate the tab now too:
select rating
Wanna post a correction for this tab? Suggest correction