Oops, an error
Loading. Please wait.

Strange Kind Of Woman tab

version 3
version 3

Whole song

Interactive

36,692 views 33 this week
2 commentsread comments
1 2 3 4 5
x 4
add to favorites
×
Save as Personal and add changes to this tab that will be seen only by you. Learn more ›
×
You can save this tab as Personal to edit and correct it or add notes. All changes will be seen only by you. Learn more »
launch autoscroll
font size
0
reset
how to read this tab
guitar tuner
backing track
0:00
0:00
edit
Autoscroll
slow
fast
+/-
esc
set tempo
stop
Author
Strange Kind Of Woman
(Blackmore/Gillan/Glover/Lord/Paice)
Single, 1971. Also included on the US versions of the "Fireball" album, 1971, and now 
on the remastered CD edition of "Fireball".

B     F#7+10   A      E7+10
7     #        5      #
7     10       5      8
8     9        6      7
9     8        7      6
9     9        7      7
7     #        5      #
intro
 B                                                           F#+10
-10b12-7-------------7----------------------------------------|
---------10-7------7---10-9-7---------------------------------|
--------------9b10------------10-9-7---9-7-------9-7----------|
-------------------------------------9-----9-7-------9-7------|
-----------------------------------------------9---------9----|
-----------------------------------------------------------7s-|
         B
(1)there once was a woman a strange kind of woman
(2)i loved her everybody loved her
(3)she looked like a raver but i could never please her
(4)she finally said she loved me i wed her in a hurry
   A               E7+10           B
the kind that gets written down in history
she loved everyone and gave a good return
on wednesday mornings boy you cant go far
no more callers and i glowed with pride
         B
her name was nancy her face was nothing fancy
i tried to take her i evn tried to break her
i couldnt get her but thing got the better she siad
im dreaming i feel like screaming
   A               E7+10           B
she left a trail of happiness and misery
she said i aint for taking wont you ever learn
saturday night from now on baby your my star
i won my woman just before she died
chorus
B                             A   E7+10  B
------------------------------|
------------------------------|
------------------------------|
---5--------------5-----------|
-7---7--7-5-7---7---7--7-5-7--|

i want you i need you i gota be near you
   A               E7+10           B
i spend my        money as i took my turn
i want you i need you i gota be near you
                                   B
                                   ----------------|
                                   ----------------|
                                   -7----------7---|
                                   -7-9-7-9----7-9-|
                                   ---9-7-9-7h9--9-|
                                   --------------7-|
   A               E7+10           B
            i got a strange kind of woman
bridge
G     D     A     Bm      G     D     A     Bm     A       E
ohh         ohh           ohh         ohh          my soul i love you


solo
 B                                    A          E7+10
-----------------------------------------------------------|
------------------------------3b5--------2-3--5--3b5r5p3---|
-2-4--4-2-4-4-2-4--4-2-4--4-2-----4-2-4------------------4-|
-----------------------------------------------------------|
-----------------------------------------------------------|
-----------------------------------------------------------|


 B                                                         A          E7+10
------------------------------------------------------------5-----------------|
-3--3-------3-------3------------3b5-3b4---------3-3--5-5b7---5h7p5-3-5---3-5-|
------4-2-4---4-2-4---4-2-4--4-2---------4p2-4p0------------------------4-----|
------------------------------------------------------------------------------|
------------------------------------------------------------------------------|
------------------------------------------------------------------------------|


 B                                                       A          E7+10
----------------------2--5b7-5-2-------------------------------------------------|
----3---------------3------------5-3---3p0---5---3---------2-3-5-3---3-3-5p3-5---|
-4----4-2-4-4---2-4------------------4-----4---4---4---4-4---------4-----------9-|
---------------------------------------------------------------------------------|
---------------------------------------------------------------------------------|
---------------------------------------------------------------------------------|


B
------------------------------7---------7----------------------7---------------|
----------------------------7---10b12-----10-7----------10b12----10-7----------|
-9b11-9b10-9-7-7b8-8b9-9b11--------------------10-9-7-----------------10-9-7---|
------------------------------------------------------9----------------------9-|
-------------------------------------------------------------------------------|
-------------------------------------------------------------------------------|


 A          E7+10     B
----------------7--9--10--9--------------12b14-|
-------------7---------------12-10-12-10-------|
-----6-7-9-8-----------------------------------|
-7-9-------------------------------------------|
-----------------------------------------------|
-----------------------------------------------|

            
            
Suggest correction
Creating personal tab
Creating personal tab
You can edit any tab online and save it as your Personal.

You can edit, replace or remove any tab part or add personal notes – all changes will be seen only by you.

Personal tabs can be accessed anytime from any device, even offline.
Learn more »
comments
print report bad tab
2 comments total.
0 reply
natfunk71 12 Nov 12, 2013 05:53 AM

The so-called F#7+10 & E7+10 are F#7#9 and E7#9 chords. The fingering is correct, the names are not.

0 reply
natfunk71 12 Nov 12, 2013 06:16 AM

Strange Kind Of Woman
(Blackmore/Gillan/Glover/Lord/Paice)
Single, 1971. Also included on the US versions of the "Fireball" album, 1971, and now
on the remastered CD edition of "Fireball".

Bm F#7#9 A E7#9
7 # 5 #
7 10 5 8
7 9 6 7
9 8 7 6
9 9 7 7
7 # 5 #
intro
B F#7#9
--10b127-------------7----------------------------------------|
12-------10-7------7---10-9-7---------------------------------|
--------------9b10------------10-9-7---9-7---------7----------|
-------------------------------------9-----9-7-------9-7------|
-----------------------------------------------9-7-------9----|
-----------------------------------------------------------7s-|
Bm
(1)there once was a woman a strange kind of woman
(2)i loved her everybody loved her
(3)she looked like a raver but i could never please her
(4)she finally said she loved me i wed her in a hurry
A E7+10 Bm
the kind that gets written down in history
she loved everyone and gave a good return
on wednesday mornings boy you cant go far
no more callers and i glowed with pride
Bm
her name was nancy her face was nothing fancy
i tried to take her i evn tried to break her
i couldnt get her but thing got the better she siad
im dreaming i feel like screaming
A E7+10 Bm
she left a trail of happiness and misery
she said i aint for taking wont you ever learn
saturday night from now on baby your my star
i won my woman just before she died
chorus
N.C. A E Bm
------------------------------|
------------------------------|
------------------------------|
---5--------------5-----------|
-7---7--7-5-7---7---7--7-5-7--|

i want you i need you i gota be near you
A E7#9 Bm
i spend my money as i took my turn
i want you i need you i gota be near you
Bm
----------------|
----------------|
-7----------7---|
-7-9-7-9----7-9-|
---9-7-9-7h9--9-|
--------------7-|
A E7#9 Bm
i got a strange kind of woman
bridge
G D A Bm G D A Bm A E
ohh ohh ohh ohh my soul i love you

solo
Bm A E7#9
-----------------------------------------------------------|
------------------------------3b5--------2-3--5--3b5r5p3---|
-2-4--4-2-4-4-2-4--4-2-4--4-2-----4-2-4------------------4-|
-----------------------------------------------------------|
-----------------------------------------------------------|
-----------------------------------------------------------|

Bm A E7#9
------------------------------------------------------------5-----------------|
-3--3-------3-------3------------3b5-3b4---------3-3--5-5b7---5h7p5-3-5---3-5-|
------4-2-4---4-2-4---4-2-4--4-2---------4p2-4p0------------------------4-----|
------------------------------------------------------------------------------|
------------------------------------------------------------------------------|
------------------------------------------------------------------------------|

Bm A E7#9
----------------------2--5b7-5-2-------------------------------------------------|
----3---------------3------------5-3---3p0---5---3---------2-3-5-3---3-3-5p3-5---|
-4----4-2-4-4---2-4------------------4-----4---4---4---4-4---------4-----------9-|
---------------------------------------------------------------------------------|
---------------------------------------------------------------------------------|
---------------------------------------------------------------------------------|

------------------------------7---------7----------------------7---------------|
----------------------------7---10b12-----10-7----------10b12----10-7----------|
-9b11-9b10-9-7-7b8-8b9-9b11--------------------10-9-7-----------------10-9-7---|
------------------------------------------------------9----------------------9-|
-------------------------------------------------------------------------------|
-------------------------------------------------------------------------------|

A E7#9 Bm
----------------7--9--10--9--------------12b14-|
-------------7---------------12-10-12-10-------|
-----6-7-9-8-----------------------------------|
-7-9-------------------------------------------|
-----------------------------------------------|
-----------------------------------------------|

guest
You may want to rate the tab now too:
select rating
Wanna post a correction for this tab? Suggest correction