Oops, an error
Loading. Please wait.

The Unwritten Law tab

version 2
version 2

Whole song

  • My version is complete (guitar and keyboard).

Interactive

7 views 1 this week
no commentswrite comment
1 2 3 4 5
1 last vote to show rating
add to favorites
×
Save as Personal and add changes to this tab that will be seen only by you. Learn more ›
×
You can save this tab as Personal to edit and correct it or add notes. All changes will be seen only by you. Learn more »
launch autoscroll
font size
0
reset
how to read this tab
guitar tuner
edit
Autoscroll
slow
fast
+/-
esc
set tempo
stop
About this tab version
My version is complete (guitar and keyboard). Was this info helpful? Yes No
THE UNWRITTEN LAW
As recorded by Deep Purple
(From the 1986 Album HOUSE OF THE BLUE LIGHT)
Tablature (Tab) for Guitar
Words by Ian Gillan
Music by Ian Gillan / Ritchie Blackmore / Roger Glover / Jon Lord / Ian Paice

Gtr I (E A D G B E) - 'Blackmore'

Gtr II (E A D G B E) - 'Lord'

Gtr III (E A D G B E) - 'Blackmore #2'


 Intro
  Moderately Fast Q=121
  Dm                                                                               G
 4/4
  Gtr I
   S      +S   +S   S  E  E  S      +S   +S   S  S  S  S  S    S  S  S  S  S  S  E  S  S  S  S  S  S  E
|-----------------------------------------------------------|-------------------------------------------|
|------------------------10---------------------------------|-------------------------------------------|
|-12b14==(12)r(12)-10-------12b14==(12)r(12)-10-12p10-------|-------------10h11-------------------------|
|---------------------12------------------------------12p10-|----12-10-12-------12-------------------12-|
|-----------------------------------------------------------|-12-------------------10h12p10----10h12----|
|-----------------------------------------------------------|-------------------------------13----------|
|
| Gtr II
|  S       S    S   S  Q     H                                 S  S  E     Q        H
|-----------------------------------------------------------|-------------------------------------------|
|-----------------------------------------------------------|-------------------------------------------|
|-----------------------------------------------------------|-------------------------------------------|
|--5-------7----5-------------------------------------------|--------3----------------------------------|
|-------------------8--5------------------------------------|-----5-------------------------------------|
|-----------------------------------------------------------|--5--------------------3-------------------|


                            Dm
   S      +S   +S   S  E  E  S      +S   +S   S  S  S  S  S
|------------------------------------------------------------|
|------------------------10----------------------------------|
|-12b14==(12)r(12)-10-------12b14==(12)r(12)-10-12p10--------|
|---------------------12------------------------------12p10--|
|------------------------------------------------------------|
|------------------------------------------------------------|
|
|  S       S    S   S  Q     H
|------------------------------------------------------------|
|------------------------------------------------------------|
|------------------------------------------------------------|
|--5-------7----5--------------------------------------------|
|-------------------8--5-------------------------------------|
|------------------------------------------------------------|


    Dm
  E  a  +Q.        a  +S      S  S  S  S  E.
|--------------------------------------------|
|---13-(13)b15r==============================|
|-----------------12-(12)b14r12p10----10-----|
|----------------------------------12----12--|
|--------------------------------------------|
|--------------------------------------------|
|
| Q            Q       H
|--------------------------------------------|
|--------------------------------------------|
|--------------------------------------------|
|--------------------------------------------|
|-5------------------------------------------|
|--------------------------------------------|


  E a +E     +S  E. S S S S S S E
|---------------------------------||
|---------------------------------||
|---5-(5)b7==(5)r5----------------||
|-------------------5h6p5-3-5-5-3-||
|---------------------------------||
|---------------------------------||
|
| Q           Q     H
|---------------------------------||
|---------------------------------||
|---------------------------------||
|---------------------------------||
|-5-------------------------------||
|---------------------------------||


 Pre-Verse
  (Dm)            (F)               (G)               (Bb)
  W                                 +W
|---------------------------------|-----------------------------------|
|---------------------------------|-----------------------------------|
|---------------------------------|-----------------------------------|
|---------------------------------|-----------------------------------|
|-5-------------------------------|-(5)-------------------------------|
|---------------------------------|-----------------------------------|
|
| H               H                  H                H
|---------------------------------|-----------------------------------|
|-3---------------1---------------|-----------------------------------|
|-2---------------2---------------|--4----------------3---------------|
|-3---------------3---------------|--5----------------5---------------|
|---------------------------------|--5----------------5---------------|
|---------------------------------|-----------------------------------|
|
| Gtr III
| S S S S S S S S S S S S S S S S    S  S S S S S S S S S S S S S S S
|---------------------------------|-----------------------------------|
|---------------------------------|-----------------------------------|
|---------------------------------|-----------------------------------|
|---------------------------------|-----------------------------------|
|-5-5-5-5-5-5-5-5-5-5-5-5-5-5-5-5-|--5--5-5-5-5-5-5-5-5-5-5-5-5-5-5-5-|
|---------------------------------|-----------------------------------|


  (Dm)            (C)               (Dm)                    (C)
  W                                 S S E   Q       S S E   S S E
|---------------------------------|---------------------------------||
|---------------------------------|---------------------------------||
|---------------------------------|---------------------------------||
|---------------------------------|-----3---------------3-------2---||
|---------------------------------|---5---------------5-------3-----||
|---------------------------------|-5---------------5-------3-------||
|
| H               H                 H               Q       Q
|---------------------------------|---------------------------------||
|---------------------------------|---------------------------------||
|-2---------------0---------------|---------------------------------||
|-3---------------2---------------|-3---------------3-------2-------||
|-5---------------3---------------|-5---------------5-------3-------||
|---------------------------------|-5---------------5-------3-------||
|
| S S S S S S S S S S S S S S S S   S S S S S S S S S S S S S S S S
|---------------------------------|---------------------------------||
|---------------------------------|---------------------------------||
|---------------------------------|---------------------------------||
|---------------------------------|---------------------------------||
|-5-5-5-5-5-5-5-5-5-5-5-5-5-5-5-5-|-5-5-5-5-5-5-5-5-5-5-5-5-5-5-5-5-||
|---------------------------------|---------------------------------||


   Verse
    $
    (Dm)        (F)                   (G)         (Bb)
    S S E   E   S S E   E   Q         S S E   E   S S E   E   Q
||----------------------------------|----------------------------------|
||o---------------------------------|----------------------------------|
||------7-----------5---------------|-----4-----------3----------------|
||----7-----------7-----------------|---5-----------3------------------|
||o-5-----------5-------------------|-5-----------5--------------------|
||----------------------------------|----------------------------------|
|
|   H               H                 H               H
||----------------------------------|----------------------------------|
||o-3---------------1---------------|----------------------------------|
||--2---------------2---------------|-4---------------3----------------|
||--3---------------3---------------|-5---------------5----------------|
||o---------------------------------|-5---------------5----------------|
||----------------------------------|----------------------------------|
|
|   S S S S S S S S S S S S S S S S   S S S S S S S S S S S S S S S S
||----------------------------------|----------------------------------|
||o---------------------------------|----------------------------------|
||----------------------------------|----------------------------------|
||----------------------------------|----------------------------------|
||o-5-5-5-5-5-5-5-5-5-5-5-5-5-5-5-5-|-5-5-5-5-5-5-5-5-5-5-5-5-5-5-5-5--|
||----------------------------------|----------------------------------|


  (Dm)        (C)                   (Dm)                    (C)
  S S E   E   S S E   E   Q         S S E   Q       S S E   S S E
|---------------------------------|---------------------------------|
|---------------------------------|---------------------------------|
|-----2-----------0---------------|---------------------------------|
|---3-----------3-----------------|-----3---------------3-------2---|
|-5-----------5-------------------|---5---------------5-------3-----|
|---------------------------------|-5---------------5-------3-------|
|
| H               H                 H               Q       Q
|---------------------------------|---------------------------------|
|---------------------------------|---------------------------------|
|-2---------------0---------------|---------------------------------|
|-3---------------2---------------|-3---------------3-------2-------|
|-5---------------3---------------|-5---------------5-------3-------|
|---------------------------------|-5---------------5-------3-------|
|
| S S S S S S S S S S S S S S S S   S S S S S S S S S S S S S S S S
|---------------------------------|---------------------------------|
|---------------------------------|---------------------------------|
|---------------------------------|---------------------------------|
|---------------------------------|---------------------------------|
|-5-5-5-5-5-5-5-5-5-5-5-5-5-5-5-5-|-5-5-5-5-5-5-5-5-5-5-5-5-5-5-5-5-|
|---------------------------------|---------------------------------|


  (Dm)            (F)               (G)             (Bb)
  S S E   E   S S E   E   Q         S S E   E   S S E   E   Q
|---------------------------------|---------------------------------|
|---------------------------------|---------------------------------|
|-----7-----------5---------------|-----4-----------3---------------|
|---7-----------7-----------------|---5-----------3-----------------|
|-5-----------5-------------------|-5-----------5-------------------|
|---------------------------------|---------------------------------|
|
| H               H                 H               H
|---------------------------------|---------------------------------|
|-3---------------1---------------|---------------------------------|
|-2---------------2---------------|-4---------------3---------------|
|-3---------------3---------------|-5---------------5---------------|
|---------------------------------|-5---------------5---------------|
|---------------------------------|---------------------------------|
|
| S S S S S S S S S S S S S S S S   S S S S S S S S S S S S S S S S
|---------------------------------|---------------------------------|
|---------------------------------|---------------------------------|
|---------------------------------|---------------------------------|
|---------------------------------|---------------------------------|
|-5-5-5-5-5-5-5-5-5-5-5-5-5-5-5-5-|-5-5-5-5-5-5-5-5-5-5-5-5-5-5-5-5-|
|---------------------------------|---------------------------------|


  (Dm)            (C)               (Dm)                    (C)
  S S E   E   S S E   E   Q         S S E   Q       S S E   S S E
|---------------------------------|---------------------------------|
|---------------------------------|---------------------------------|
|-----2-----------0---------------|---------------------------------|
|---3-----------3-----------------|-----3---------------3-------2---|
|-5-----------5-------------------|---5---------------5-------3-----|
|---------------------------------|-5---------------5-------3-------|
|
| H               H                 H               Q       Q
|---------------------------------|---------------------------------|
|---------------------------------|---------------------------------|
|-2---------------0---------------|---------------------------------|
|-3---------------2---------------|-3---------------3-------2-------|
|-5---------------3---------------|-5---------------5-------3-------|
|---------------------------------|-5---------------5-------3-------|
|
| S S S S S S S S S S S S S S S S   S S S S S S S S S S S S S S S S
|---------------------------------|---------------------------------|
|---------------------------------|---------------------------------|
|---------------------------------|---------------------------------|
|---------------------------------|---------------------------------|
|-5-5-5-5-5-5-5-5-5-5-5-5-5-5-5-5-|-5-5-5-5-5-5-5-5-5-5-5-5-5-5-5-5-|
|---------------------------------|---------------------------------|


  (Dm)            (F)               (G)             (Bb)
  S S E   E   S S E   E   Q         S S E   E   S S E   E   Q
|---------------------------------|---------------------------------|
|---------------------------------|---------------------------------|
|-----7-----------5---------------|-----4-----------3---------------|
|---7-----------7-----------------|---5-----------3-----------------|
|-5-----------5-------------------|-5-----------5-------------------|
|---------------------------------|---------------------------------|
|
| H               H                 H               H
|---------------------------------|---------------------------------|
|-3---------------1---------------|---------------------------------|
|-2---------------2---------------|-4---------------3---------------|
|-3---------------3---------------|-5---------------5---------------|
|---------------------------------|-5---------------5---------------|
|---------------------------------|---------------------------------|
|
| S S S S S S S S S S S S S S S S   S S S S S S S S S S S S S S S S
|---------------------------------|---------------------------------|
|---------------------------------|---------------------------------|
|---------------------------------|---------------------------------|
|---------------------------------|---------------------------------|
|-5-5-5-5-5-5-5-5-5-5-5-5-5-5-5-5-|-5-5-5-5-5-5-5-5-5-5-5-5-5-5-5-5-|
|---------------------------------|---------------------------------|


  (Dm)            (C)               (Dm)                    (C)
  S S E   E   S S E   E   Q         S S E   Q       S S E   S S E
|---------------------------------|---------------------------------|
|---------------------------------|---------------------------------|
|-----2-----------0---------------|---------------------------------|
|---3-----------3-----------------|-----3---------------3-------2---|
|-5-----------5-------------------|---5---------------5-------3-----|
|---------------------------------|-5---------------5-------3-------|
|
| H               H                 H               Q       Q
|---------------------------------|---------------------------------|
|---------------------------------|---------------------------------|
|-2---------------0---------------|---------------------------------|
|-3---------------2---------------|-3---------------3-------2-------|
|-5---------------3---------------|-5---------------5-------3-------|
|---------------------------------|-5---------------5-------3-------|
|
| S S S S S S S S S S S S S S S S   S S S S S S S S S S S S S S S S
|---------------------------------|---------------------------------|
|---------------------------------|---------------------------------|
|---------------------------------|---------------------------------|
|---------------------------------|---------------------------------|
|-5-5-5-5-5-5-5-5-5-5-5-5-5-5-5-5-|-5-5-5-5-5-5-5-5-5-5-5-5-5-5-5-5-|
|---------------------------------|---------------------------------|


  (Dm)            (F)               (G)             (Bb)
  S S E   E   S S E   E   Q         S S E   E   S S E   E   Q
|---------------------------------|---------------------------------|
|---------------------------------|---------------------------------|
|-----7-----------5---------------|-----4-----------3---------------|
|---7-----------7-----------------|---5-----------3-----------------|
|-5-----------5-------------------|-5-----------5-------------------|
|---------------------------------|---------------------------------|
|
| H               H                 H               H
|---------------------------------|---------------------------------|
|-3---------------1---------------|---------------------------------|
|-2---------------2---------------|-4---------------3---------------|
|-3---------------3---------------|-5---------------5---------------|
|---------------------------------|-5---------------5---------------|
|---------------------------------|---------------------------------|
|
| S S S S S S S S S S S S S S S S   S S S S S S S S S S S S S S S S
|---------------------------------|---------------------------------|
|---------------------------------|---------------------------------|
|---------------------------------|---------------------------------|
|---------------------------------|---------------------------------|
|-5-5-5-5-5-5-5-5-5-5-5-5-5-5-5-5-|-5-5-5-5-5-5-5-5-5-5-5-5-5-5-5-5-|
|---------------------------------|---------------------------------|


  (Dm)            (C)               (Dm)            Dm      Em/C
  S S E   E   S S E   E   Q         S S E   Q       Q        Q
|---------------------------------|----------------------------------||
|---------------------------------|-----------------6--------8-------||
|-----2-----------0---------------|-----------------7--------9-------||
|---3-----------3-----------------|-----3-----------7-------10-------||
|-5-----------5-------------------|---5-------------5--------7-------||
|---------------------------------|-5--------------------------------||
|
| H               H                 H               Q        Q
|---------------------------------|----------------------------------||
|---------------------------------|----------------------------------||
|-2---------------0---------------|--------------------------0-------||
|-3---------------2---------------|-3---------------3--------2-------||
|-5---------------3---------------|-5---------------5--------3-------||
|---------------------------------|-5---------------5----------------||
|
| S S S S S S S S S S S S S S S S   S S S S S S S S S S S S  S S S S
|---------------------------------|----------------------------------||
|---------------------------------|----------------------------------||
|---------------------------------|----------------------------------||
|---------------------------------|----------------------------------||
|-5-5-5-5-5-5-5-5-5-5-5-5-5-5-5-5-|-5-5-5-5-5-5-5-5-5-5-5-5--7-7-7-7-||
|---------------------------------|----------------------------------||


 Chorus
  $$
  F               C                 Dm              Bb
  H               H                 H               H
|---------------------------------|---------------------------------|
|---------------------------------|---------------------------------|
|-----------------5---------------|-7---------------3---------------|
|-3---------------5---------------|-7---------------3---------------|
|-3---------------3---------------|-5---------------1---------------|
|-1-------------------------------|---------------------------------|
|
| H               H                 H               H
|---------------------------------|---------------------------------|
|---------------------------------|---------------------------------|
|-2---------------0---------------|---------------------------------|
|-3---------------2---------------|-3---------------3---------------|
|-3---------------3---------------|-5---------------5---------------|
|---------------------------------|-5---------------6---------------|
|
| S S S S S S S S S S S S S S S S   S S S S S S S S S S S S S S S S
|---------------------------------|---------------------------------|
|---------------------------------|---------------------------------|
|---------------------------------|---------------------------------|
|---------------------------------|---------------------------------|
|-----------------3-3-3-3-3-3-3-3-|-5-5-5-5-5-5-5-5-1-1-1-1-1-1-1-1-|
|-1-1-1-1-1-1-1-1-----------------|---------------------------------|


  F               C                 Dm       C   Dm
  H               H                 E.     S E   E   +H
|---------------------------------|------------------------------------|
|---------------------------------|------------------------------------|
|-----------------5---------------|-7------7-5---7---(7)---------------|
|-3---------------5---------------|-7------7-5---7---(7)---------------|
|-3---------------3---------------|-5------5-3---5---(5)---------------|
|-1-------------------------------|------------------------------------|
|
| H               H                 Q        E   E   +H
|---------------------------------|------------------------------------|
|-1---------------1---------------|-3--------1---3---(3)---------------|
|-2---------------0---------------|-2--------0---2---(2)---------------|
|-3---------------2---------------|-3--------2---3---(3)---------------|
|---------------------------------|------------------------------------|
|---------------------------------|------------------------------------|
|
| S S S S S S S S S S S S S S S S   S  S S S S S S S  S  S S S S S S S
|---------------------------------|------------------------------------|
|---------------------------------|------------------------------------|
|---------------------------------|------------------------------------|
|---------------------------------|------------------------------------|
|-----------------3-3-3-3-3-3-3-3-|-5--5-5-5-3-3-5-5--5--5-5-5-5-5-5-5-|
|-1-1-1-1-1-1-1-1-----------------|------------------------------------|


  F               C                 Dm                       C   Bb
  H               H                 H.                       E   E
|---------------------------------|----------------------------------|
|---------------------------------|----------------------------------|
|-----------------5---------------|-7--------------------------------|
|-3---------------5---------------|-7--------------------------------|
|-3---------------3---------------|-5------------------------3---1---|
|-1-------------------------------|----------------------------------|
|
| H               H                 H.                       E   E
|---------------------------------|----------------------------------|
|-1---------------1---------------|----------------------------------|
|-2---------------0---------------|-2--------------------------------|
|-3---------------2---------------|-3------------------------2---0---|
|---------------------------------|-5------------------------3---1---|
|---------------------------------|--------------------------3---1---|
|
| S S S S S S S S S S S S S S S S   S  S S S S S S S S S S S S S S S
|---------------------------------|----------------------------------|
|---------------------------------|----------------------------------|
|---------------------------------|----------------------------------|
|---------------------------------|----------------------------------|
|-----------------3-3-3-3-3-3-3-3-|-5--5-5-5-5-5-5-5-5-5-5-5-3-3-1-1-|
|-1-1-1-1-1-1-1-1-----------------|----------------------------------|


                             To Coda
                             To Coda
  Bb                        C   Bb                              C   Gm
  +H.                       E   E     +H.                       E   E
|-----------------------------------|-----------------------------------|
|-----------------------------------|-----------------------------------|
|-----------------------------------|-----------------------------------|
|-----------------------------------|-----------------------------------|
|-(1)-----------------------3---1---|-(1)-----------------------3-------|
|-----------------------------------|-------------------------------3---|
|
| +H.                       E   E     +H.                       E   E
|-----------------------------------|-----------------------------------|
|-----------------------------------|-----------------------------------|
|-----------------------------------|-----------------------------------|
|-(0)-----------------------2---0---|-(0)-----------------------2---0---|
|-(1)-----------------------3---1---|-(1)-----------------------3---1---|
|-(1)-----------------------3---1---|-(1)-----------------------3---3---|
|
|  S  S S S S S S S S S S S S S S S    S  S S S S S S S S S S S S S S S
|-----------------------------------|-----------------------------------|
|-----------------------------------|-----------------------------------|
|-----------------------------------|-----------------------------------|
|-----------------------------------|-----------------------------------|
|--1--1-1-1-1-1-1-1-1-1-1-1-3-3-1-1-|--1--1-1-1-1-1-1-1-1-1-1-1-3-3-----|
|-----------------------------------|-------------------------------3-3-|


                                     1.
  Gm
  +W                                   W
|-----------------------------------|-----------------------------------||
|-----------------------------------|-----------------------------------||
|-----------------------------------|-----------------------------------||
|-----------------------------------|-----------------------------------||
|-----------------------------------|-----------------------------------||
|-(3)-------------------------------|-----------------------------------||
|
| +W                                  +W
|-----------------------------------|-----------------------------------||
|-----------------------------------|-----------------------------------||
|-----------------------------------|-----------------------------------||
|-(0)-------------------------------|-(0)-------------------------------||
|-(1)-------------------------------|-(1)-------------------------------||
|-(3)-------------------------------|-(3)-------------------------------||
|
|  S  S S S S S S S S S S S S S S S    S  S S S S S S S S S S S S S S S
|-----------------------------------|-----------------------------------||
|-----------------------------------|-----------------------------------||
|-----------------------------------|-----------------------------------||
|-----------------------------------|-----------------------------------||
|-----------------------------------|-----------------------------------||
|--3--3-3-3-3-3-3-3-3-3-3-3-3-3-3-3-|--3--3-3-3-3-3-3-3-3-3-3-3-3-3-3-3-||


 Pre-Verse
  Dm              F                 G               Bb
  S S E   E   S S E   E   Q         S S E   E   S S E   E   Q
|---------------------------------|---------------------------------|
|---------------------------------|---------------------------------|
|-----7-----------5---------------|-----4-----------3---------------|
|---7-----------7-----------------|---5-----------3-----------------|
|-5-----------5-------------------|-5-----------5-------------------|
|---------------------------------|---------------------------------|
|
| H               H                 H               H
|---------------------------------|---------------------------------|
|-3---------------1---------------|---------------------------------|
|-2---------------2---------------|-4---------------3---------------|
|-3---------------3---------------|-5---------------5---------------|
|---------------------------------|-5---------------5---------------|
|---------------------------------|---------------------------------|
|
| S S S S S S S S S S S S S S S S   S S S S S S S S S S S S S S S S
|---------------------------------|---------------------------------|
|---------------------------------|---------------------------------|
|---------------------------------|---------------------------------|
|---------------------------------|---------------------------------|
|-5-5-5-5-5-5-5-5-5-5-5-5-5-5-5-5-|-5-5-5-5-5-5-5-5-5-5-5-5-5-5-5-5-|
|---------------------------------|---------------------------------|


  Dm              C                 Dm                      C
  S S E   E   S S E   E   Q         S S E   Q       S S E   S S E
|---------------------------------|----------------------------------||
|---------------------------------|---------------------------------o||
|-----2-----------0---------------|----------------------------------||
|---3-----------3-----------------|-----3---------------3-------2----||
|-5-----------5-------------------|---5---------------5-------3-----o||
|---------------------------------|-5---------------5-------3--------||
|
| H               H                 H               Q       Q
|---------------------------------|----------------------------------||
|---------------------------------|---------------------------------o||
|-2---------------0---------------|----------------------------------||
|-3---------------2---------------|-3---------------3-------2--------||
|-5---------------3---------------|-5---------------5-------3-------o||
|---------------------------------|-5---------------5-------3--------||
|
| S S S S S S S S S S S S S S S S   S S S S S S S S S S S S S S S S
|---------------------------------|----------------------------------||
|---------------------------------|---------------------------------o||
|---------------------------------|----------------------------------||
|---------------------------------|----------------------------------||
|-5-5-5-5-5-5-5-5-5-5-5-5-5-5-5-5-|-5-5-5-5-5-5-5-5-5-5-5-5-5-5-5-5-o||
|---------------------------------|----------------------------------||


                                    Guitar Solo
  2.
  Gm                                 Am
  W                                  W
|---------------------------------||----------------------------------|
|---------------------------------||----------------------------------|
|---------------------------------||----------------------------------|
|-5-------------------------------||----------------------------------|
|---------------------------------||-5--------------------------------|
|---------------------------------||----------------------------------|
|
| W                                  W
|---------------------------------||----------------------------------|
|---------------------------------||----------------------------------|
|---------------------------------||----------------------------------|
|-0-------------------------------||----------------------------------|
|-1-------------------------------||----------------------------------|
|-3-------------------------------||----------------------------------|
|
| S S S S S S S S S S S S S S S S    S S S S S S S S S S S S S S S S
|---------------------------------||----------------------------------|
|---------------------------------||----------------------------------|
|---------------------------------||----------------------------------|
|---------------------------------||----------------------------------|
|---------------------------------||-0-0-0-0-0-0-0-0-0-0-0-0-0-0-0-0--|
|-3-3-3-3-3-3-3-3-3-3-3-3-3-3-3-3-||----------------------------------|


  Am
                   \3
  E   Q       E   +H                  S S E   E   E   +H
|-----------------------------------|-----------------------------------|
|-----------------------------------|-----------------------------------|
|-----------------------------------|-----------------------------------|
|-----------------------------------|-----------------------------------|
|-----5-------5---(5)---------------|-0-3p2---0-------------------------|
|-----------------------------------|-------------3---(3)---------------|
|
| S S S S S S S S  S  S S S S S S S   S S S S S S S S  S  S S S S S S S
|-----------------------------------|-----------------------------------|
|-----------------------------------|-----------------------------------|
|-----------------------------------|-----------------------------------|
|-----------------------------------|-----------------------------------|
|-0-0-0-0-0-0-0-0--0--0-0-0-0-0-0-0-|-0-0-0-0-0-0-0-0--0--0-0-0-0-0-0-0-|
|-----------------------------------|-----------------------------------|


                                               ~~~
  E   E   E   E   H                 S S E     +H.
|---------------------------------|-------------------------------------|
|---------------------------------|-------------------------------------|
|---------------------------------|-------------------------------------|
|-0-------------------------------|-0h2---------------------------------|
|-----3p==2-----------------------|-----3b5---(3)-----------------------|
|-------------3---1---------------|-------------------------------------|
|
| S S S S S S S S S S S S S S S S   S S S   S  S  S S S S S S S S S S S
|---------------------------------|-------------------------------------|
|---------------------------------|-------------------------------------|
|---------------------------------|-------------------------------------|
|---------------------------------|-------------------------------------|
|-0-0-0-0-0-0-0-0-0-0-0-0-0-0-0-0-|-0-0-0---0--0--0-0-0-0-0-0-0-0-0-0-0-|
|---------------------------------|-------------------------------------|


  Am
  S S S S S S S S S S E   +Q          S S E   Q       E   Q       S S
|-----------------------------------|---------------------------------|
|-----------------------------------|---------------------------------|
|-----------------------------------|-----------------------------4h5-|
|-0-2p0-------0---0-2p0---(0)-------|-7p5-----5-------7---7-----------|
|-------3-0-3---3-------------------|-----7---------------------------|
|-----------------------------------|---------------------------------|
|
| S S S S S S S S S S S S  S  S S S   S S S S S S S S S S S S S S S S
|-----------------------------------|---------------------------------|
|-----------------------------------|---------------------------------|
|-----------------------------------|---------------------------------|
|-----------------------------------|---------------------------------|
|-0-0-0-0-0-0-0-0-0-0-0-0--0--0-0-0-|-0-0-0-0-0-0-0-0-0-0-0-0-0-0-0-0-|
|-----------------------------------|---------------------------------|


  Am
  S S S S E   E     +Q.           E     Q.           S S +E.     S +S  S S S
|---------------------------------7---|-5------------------------------------|
|-------------6b8---(6)---------------|--------------5-8-(8)-----5-(5)-6h8p6-|
|-7p5-7p5-----------------------------|--------------------------------------|
|---------7---------------------------|--------------------------------------|
|-------------------------------------|--------------------------------------|
|-------------------------------------|--------------------------------------|
|
| S S S S S S S   S  S  S S S S S S S   S  S S S S S S S  S  S S S  S  S S S
|-------------------------------------|--------------------------------------|
|-------------------------------------|--------------------------------------|
|-------------------------------------|--------------------------------------|
|-------------------------------------|--------------------------------------|
|-0-0-0-0-0-0-0---0--0--0-0-0-0-0-0-0-|-0--0-0-0-0-0-0-0--0--0-0-0--0--0-0-0-|
|-------------------------------------|--------------------------------------|


  Am
                      |------5------|
  S S T T T T S S S S S S   S   S   S S S E
|---------------------------------------------|
|-5---5h6p5---5-------------------------------|
|---7-------7---7-4-7-4h5p==4-------4---------|
|-------------------------------7-----4-7-5---|
|---------------------------------------------|
|---------------------------------------------|
|
| S S S   S   S S S S S   S   S   S   S S S S
|---------------------------------------------|
|---------------------------------------------|
|---------------------------------------------|
|---------------------------------------------|
|-0-0-0---0---0-0-0-0-0---0---0---0---0-0-0-0-|
|---------------------------------------------|


  |------5------|               |--3--| |------5------|
  S S   S   S   S +Q        E   S S   S S S   S   S   S
|--------------------------------------------------------|
|--------------------------------------------------------|
|---------------------------5---7p5p==4---4h==5p==4------|
|-7p6-------6---7-(7)-------------------7-------------7--|
|-------8------------------------------------------------|
|--------------------------------------------------------|
|
| S   S   S   S    S  S S S S S S   S   S   S   S   S
|--------------------------------------------------------|
|--------------------------------------------------------|
|--------------------------------------------------------|
|--------------------------------------------------------|
|-0---0---0---0----0--0-0-0-0-0-0---0---0---0---0---0----|
|--------------------------------------------------------|


  Am
  |--3--|     |------5------| |------6------|
  S S   S S S S S   S   S   S S S   S S S   S S S S S
|-----------------------------------------------------|
|-----------------------------------------------------|
|-----------------------------------------------------|
|-5p4-----4-5-3p2-------2h==3-2h3p==2-----------------|
|-------7-----------3-----------------5p3p==2-----5-3-|
|---------------------------------------------5-3-----|
|
| S   S   S S S   S   S   S   S   S   S   S   S S S S
|-----------------------------------------------------|
|-----------------------------------------------------|
|-----------------------------------------------------|
|-----------------------------------------------------|
|-0---0---0-0-0---0---0---0---0---0---0---0---0-0-0-0-|
|-----------------------------------------------------|


  Q       E   E   +Q        E   E
|------------------------------------|
|---------5---------------------5----|
|-7----------------------------------|
|-------------7---(7)----------------|
|------------------------------------|
|------------------------------------|
|
| S S S S S S S S  S  S S S S S S S
|------------------------------------|
|------------------------------------|
|------------------------------------|
|------------------------------------|
|-0-0-0-0-0-0-0-0--0--0-0-0-0-0-0-0--|
|------------------------------------|


  Am
  Q       E   E   +H                  a Q       S S E   H
|-----------------------------------|-----------------------------------|
|---------5-------------------------|-5h6-------5h6p5-------------------|
|-7---------------------------------|-------------------7---------------|
|-------------7---(7)---------------|-----------------------------------|
|-----------------------------------|-----------------------------------|
|-----------------------------------|-----------------------------------|
|
| S S S S S S S S  S  S S S S S S S     S S S S S S S S S S S S S S S S
|-----------------------------------|-----------------------------------|
|-----------------------------------|-----------------------------------|
|-----------------------------------|-----------------------------------|
|-----------------------------------|-----------------------------------|
|-0-0-0-0-0-0-0-0--0--0-0-0-0-0-0-0-|---0-0-0-0-0-0-0-0-0-0-0-0-0-0-0-0-|
|-----------------------------------|-----------------------------------|


                             D.S. al Coda
  S S E    a  +H.
|---------15-(15)b17-------------------------||
|--------------------------------------------||
|--------------------------------------------||
|-----5--------------------------------------||
|---7----------------------------------------||
|-5------------------------------------------||
|
| S S S S      S     S S S S S S S S S S S
|--------------------------------------------||
|--------------------------------------------||
|--------------------------------------------||
|--------------------------------------------||
|-0-0-0-0------0-----0-0-0-0-0-0-0-0-0-0-0---||
|--------------------------------------------||


  &            D.S.S. al Dbl. Coda
                                  &&
  Bb                                                         C   Gm
  W                                 H.                       E   E
|---------------------------------|----------------------------------|
|---------------------------------|----------------------------------|
|---------------------------------|----------------------------------|
|---------------------------------|----------------------------------|
|-1-------------------------------|-1------------------------3-------|
|---------------------------------|------------------------------3---|
|
| W                                 H.                       E   E
|---------------------------------|----------------------------------|
|---------------------------------|----------------------------------|
|---------------------------------|----------------------------------|
|-0-------------------------------|-0------------------------2---0---|
|-1-------------------------------|-1------------------------3---1---|
|-1-------------------------------|-1------------------------3---3---|
|
| Gtr III
| S S S S S S S S S S S S S S S S   S  S S S S S S S S S S S S S S S
|---------------------------------|----------------------------------|
|---------------------------------|----------------------------------|
|---------------------------------|----------------------------------|
|---------------------------------|----------------------------------|
|-1-1-1-1-1-1-1-1-1-1-1-1-1-1-1-1-|-1--1-1-1-1-1-1-1-1-1-1-1-3-3-----|
|---------------------------------|------------------------------3-3-|


  Gm
  +W                                  +W
|-----------------------------------|-----------------------------------|
|-----------------------------------|-----------------------------------|
|-----------------------------------|-----------------------------------|
|-----------------------------------|-----------------------------------|
|-----------------------------------|-----------------------------------|
|-(3)-------------------------------|-(3)-------------------------------|
|
| +W                                  +W
|-----------------------------------|-----------------------------------|
|-----------------------------------|-----------------------------------|
|-----------------------------------|-----------------------------------|
|-(0)-------------------------------|-(0)-------------------------------|
|-(1)-------------------------------|-(1)-------------------------------|
|-(3)-------------------------------|-(3)-------------------------------|
|
|  S  S S S S S S S S S S S S S S S    S  S S S S S S S S S S S S S S S
|-----------------------------------|-----------------------------------|
|-----------------------------------|-----------------------------------|
|-----------------------------------|-----------------------------------|
|-----------------------------------|-----------------------------------|
|-----------------------------------|-----------------------------------|
|--3--3-3-3-3-3-3-3-3-3-3-3-3-3-3-3-|--3--3-3-3-3-3-3-3-3-3-3-3-3-3-3-3-|


 Outro (fade out)
  Gtr II
  +W                                  +W
|-----------------------------------|-----------------------------------*|
|-----------------------------------|-----------------------------------*|
|-----------------------------------|-----------------------------------*|
|-(0)-------------------------------|-(0)-------------------------------*|
|-(1)-------------------------------|-(1)-------------------------------*|
|-(3)-------------------------------|-(3)-------------------------------*|
|
| Gtr III
|  S  S S S S S S S S S S S S S S S    S  S S S S S S S S S S S S S S S
|-----------------------------------|-----------------------------------*|
|-----------------------------------|-----------------------------------*|
|-----------------------------------|-----------------------------------*|
|-----------------------------------|-----------------------------------*|
|-----------------------------------|-----------------------------------*|
|--3--3-3-3-3-3-3-3-3-3-3-3-3-3-3-3-|--3--3-3-3-3-3-3-3-3-3-3-3-3-3-3-3-*|


Duration Legend
---------------
W - whole; H - half; Q - quarter; E - 8th; S - 16th; T - 32nd; X - 64th; a - acciaccatura
+ - note tied to previous; . - note dotted; .. - note double dotted
Uncapitalized letters represent notes that are staccato (1/2 duration)
Irregular groupings are notated above the duration line
Duration letters will always appear directly above the note/fret number it represents the
duration for.  Duration letters with no fret number below them represent rests.  Multi-
bar rests are notated in the form Wxn, where n is the number of bars to rest for.  Low
melody durations appear below the staff

Tablature Legend
----------------
 h   - hammer-on
 p   - pull-off
 b   - bend
 pb  - pre-bend
 r   - bend release (if no number after the r, then release immediately)
 /\  - slide into or out of (from/to "nowhere")
 s   - legato slide
 S   - shift slide
 - natural harmonic
[n]  - artificial harmonic
n(n) - tapped harmonic
 ~   - vibrato
 tr  - trill
 T   - tap
 TP  - trem. picking
 PM  - palm muting
\n/  - tremolo bar dip; n = amount to dip
 \n  - tremolo bar down
 n/  - tremolo bar up
/n\  - tremolo bar inverted dip
 =   - hold bend; also acts as connecting device for hammers/pulls
 <> - volume swell (louder/softer)
 x   - on rhythm slash represents muted slash
 o   - on rhythm slash represents single note slash

Misc Legend
-----------
 |  - bar
||  - double bar
||o - repeat start
o|| - repeat end
*|  - double bar (ending)
 :  - bar (freetime)
 $  - Segno
 &  - Coda
Tempo markers -  = BPM(8/16=s8/s16), where s8 = swing 8ths, s16 = swing 16ths

            
            
Suggest correction
Creating personal tab
Creating personal tab
You can edit any tab online and save it as your Personal.

You can edit, replace or remove any tab part or add personal notes – all changes will be seen only by you.

Personal tabs can be accessed anytime from any device, even offline.
Learn more »
Give kudos to tab author, rate the tab!
1 2 3 4 5
comments
print report bad tab
guest
You may want to rate the tab now too:
select rating
Wanna post a correction for this tab? Suggest correction