Oops, an error
Loading. Please wait.

Woman From Tokyo Tab

version 1
version 1

Whole song

Interactive

62,875 views 63 this week
5 commentsread comments
1 2 3 4 5
x 14
add to favorites
launch autoscroll
font size
0
reset
how to read this tab
guitar tuner
Autoscroll
slow
fast
+/-
esc
set tempo
stop
Help us to improve Ultimate-Guitar.com Take our survey!
×
Author
WOMAN FROM TOKYO
As recorded by Deep Purple
(From the 1973 Album WHO DO WE THINK WE ARE)
Tempo 124
Words and Music by Jon Lord,Ritchie Blackmore,Ian Gillan,Roger Glover,Ian Paice

Gtr I tuning: (E A D G B E) - 'Untitled'
Gtr II tuning: (E A D G B E) - 'Untitled'

[Intro]
  4/4
Gtr I
e|---------|---------------|---------------------|
B|---------|---------------|---------------------|
G|---------|----2--2p1---2-|--1------------------|
D|---------|----2--2-----2-|--2--2-(2)---------0-|
A|---------|-----------2---|-----2-(2)----0h=2---|
E|---------|-0---------0---|-----------0-(0)-----|

e|-------------------|-----------------------|---------------|
B|----------3-(3)----|-------7-(7)----(7)s=2-|---------------|
G|-------------------|-----------------------|---------------|
D|------3s4---(4)----|--6s=7---(7)----(7)s=2-|---------------|
A|-------------------|-----------------------|---------------|
E|-------------------|-----------------------|---------------|
 |
 | Gtr I
 |                      ~~~
e|-------------------|-----------------------|---------------|
B|-------------------|-----------------------|---------------|
G|-------------------|-----------------------|----2--2p1---1-|
D|-(0)---------------|-(0)-------------------|----2--2-----2-|
A|-------------------|-----------------------|---------------|
E|-------------------|-----------------------|-0---------0---|

e|-----------------------|---------------------------|--------------------|
B|-----------------------|------------12-(12)-----10-|-----8---6---5---3--|
G|-----------------------|---------------------------|--------------------|
D|-----------------------|------11s12----------10----|--9----7---5---3----|
A|-----------------------|---------------------------|--------------------|
E|-----------------------|---------------------------|--------------------|
|
e|-----------------------|---------------------------|--------------------|
B|-----------------------|---------------------------|--------------------|
G|-----1-----------------|---------------------------|--------------------|
D|-----2--2--3-(3)--4--5-|-(5)-----------------------|-(5)----------------|
A|--------2--3-(3)--4--5-|-(5)-----------------------|-(5)----------------|
E|-(0)-------------------|---------------------------|--------------------|

e|-------------|--------------|-------------|---------------|
B|-5-----------|--------------|-------------|---------------|
G|-------------|----------7-9-|-------------|----------7-9--|
D|-2-----------|----------5-7-|-------------|----------5-7--|
A|-------------|--------7-----|-------------|--------7------|
E|-------------|--------------|-------------|---------------|
|
e|-------------|--------------|-------------|---------------|
B|-------------|--------------|-------------|---------------|
G|-------------|--------------|-------------|---------------|
D|----2----0h2-|----2---------|----2----0h2-|----2----------|
A|-------------|--------------|-------------|---------------|
E|-0-----------|-0------------|-0-----------|-0-------------|

e|-------------|--------------|-------------|---------------|
B|-------------|----------3---|-------------|----------3----|
G|-------------|----------4-6-|-------------|----------4-6--|
D|-------------|--------2-5-7-|-------------|--------2-5-7--|
A|-------------|--------------|-------------|---------------|
E|-------------|--------------|-------------|---------------|
|
e|-------------|--------------|-------------|---------------|
B|-------------|--------------|-------------|---------------|
G|-------------|--------------|-------------|---------------|
D|----2----0h2-|----2---------|----2----0h2-|----2----------|
A|-------------|--------------|-------------|---------------|
E|-0-----------|-0------------|-0-----------|-0-------------|

e|------------------|------------|--------------------|------------------------|
B|------------------|------------|----14--14-12----14-|-----12-----------------|
G|------------------|------------|----14--14-13----14-|-----13--13-(13)--------|
D|------------------|------------|----14--14----14-14-|-----14--14-(14)--------|
A|------------------|------------|--------------------|------------------------|
E|------------------|------------|--------------------|------------------------|
|
 |       ~~~~~~
e|-3----------------|------------|--------------------|------------------------|
B|---5p3------------|------------|--------------------|------------------------|
G|-------4-(4)------|-(4)--------|-----2---2p=1-----2-|------1-----------------|
D|------------------|------------|-----2---2--------2-|------2---2--(2)------0-|
A|------------------|------------|--------------------|----------2--(2)--0h2---|
E|------------------|------------|-0-------------0----|-(0)--------------------|

e|--------------------|-------------------|
B|----14--14-12----14-|-----12s=====5-----|
G|----14--14-13----14-|-----13s=====6-----|
D|----14--14----14-14-|-----14s=====7-----|
A|--------------------|-------------------|
E|--------------------|-------------------|
|
e|--------------------|-------------------|
B|--------------------|-------------------|
G|-----2---2p=1-----2-|------1-(1)--------|
D|-2---2---2--------2-|------2-(2)--------|
A|--------------------|-------------------|
E|-0-------------0----|-(0)---------------|

e|--------------------|-------------------------|
B|----14--14-12----14-|-----12------------------|
G|----14--14-13----14-|-----13--13-(13)---------|
D|----14--14----14-14-|-----14--14-(14)---------|
A|--------------------|-------------------------|
E|--------------------|-------------------------|
|
e|--------------------|-------------------------|
B|--------------------|-------------------------|
G|-----2---2p=1-----1-|------1------------------|
D|-----2---2--------2-|------2---2--(2)------0--|
A|--------------------|----------2--(2)--0h2----|
E|-0-------------0----|-(0)---------------------|

e|--------------------|-------------------------||
B|----14--14-12----14-|-----12s=====5-----------||
G|----14--14-13----14-|-----13s=====6-----------||
D|----14--14----14-14-|-----14s=====7-----------||
A|--------------------|-------------------------||
E|--------------------|-------------------------||
|
e|--------------------|-------------------------||
B|--------------------|-------------------------||
G|-----2---2p=1-----1-|------1-(1)----(1)-------||
D|-2---2---2--------2-|------2-(2)----(2)-------||
A|--------------------|-------------------------||
E|-0-------------0----|-(0)---------------0-1-2-||

[Verse 1]
      G        Gadd11
e|---------------|-------------------|
B|---------------|-------------------|
G|---------------|-------------------|
D|---------------|-------------------|
A|---------------|-------------------|
E|---------------|-------------------|
|
e|----3----(3)-3-|-(3)----(3)-3-3-3--|
B|----0----(0)-1-|-(1)----(1)-1-1-1--|
G|----0----(0)-0-|-(0)----(0)-0-0-0--|
D|----0----(0)-3-|-(3)----(3)--------|
A|---------------|-------------------|
E|-3-----------3-|-(3)----(3)--------|

   G             Gadd11                           Gadd11
   Gtr I
            \1/                  \1/
                           PM
e|-(3)--3--(3)-----3-|-(3)-3------------|----3------3-|-3--3--(3)--3-3-3-|
B|-(1)--3--(3)-----1-|-(1)-1------------|----3------3-|-3--3--(3)--3-3-3-|
G|-(0)--0--(0)-----0-|-(0)-0--2-(2)-----|----0------0-|-0--0--(0)--0-0-0-|
D|------0--(0)-------|--------3-(3)-----|----0------0-|-0--0--(0)--0-0-0-|
A|-------------------|------------------|-------------|------------------|
E|--3------------3---|------------------|-3-------3---|-3--3--(3)--3-3-3-|

[Chorus]
   G7
e|-(3)--3----------|----------------------||---------------|
B|-(3)--0----------|----------------------||---------------|
G|-(0)--0----------|----------------------||----2--2p1---2-|
D|-(0)-----------3-|-(3)------5-(5)---3s0-||----2--2-----2-|
A|-----------3h5---|------3-5-------------||---------------|
E|-(3)-------------|----------------------||-0---------0---|

   E
   Gtr II
e|----------------------|---------------|
B|----------------------|---------------|
G|----------------------|---------------|
D|----------------------|---------------|
A|----------------------|---------------|
E|----------------------|---------------|
 |
 | Gtr I
e|----------------------|---------------|
B|----------------------|---------------|
G|-----1----------------|----2--2p1---2-|
D|-----2--2-(2)-------0-|-2--2--2-----2-|
A|--------2-(2)---0h2---|---------------|
E|-(0)----------0-------|-0---------0---|

e|------------------------------------------------|
B|-----15b17-----15-------------------------------|
G|------------------14b16-14pb16==(14)r14p12-(12)-|
D|------------------------------------------------|
A|------------------------------------------------|
E|------------------------------------------------|
|
e|------------------------------------------------|
B|------------------------------------------------|
G|------1----(1)----------------------------------|
D|------2----(2)----------------------------------|
A|------------------------------------------------|
E|-(0)--------------------------------------------|

e|-----------------------------|----------------------|
B|-----------------------------|----------------------|
G|-14b16-14b16==(14)r----------|----------------------|
D|-----------------------------|----------------------|
A|-----------------------------|----------------------|
E|-----------------------------|----------------------|
|
e|-----------------------------|----------------------|
B|-----------------------------|----------------------|
G|----------------2----2p1---2-|-----1----------------|
D|----------------2----2-----2-|-----2--2-(2)-------0-|
A|-----------------------------|--------2-(2)---0h2---|
E|--0----------------------0---|-(0)----------0-------|

e|---------------|----------------------|
B|---------------|----------------------|
G|---------------|----------------------|
D|---------------|----------------------|
A|---------------|----------------------|
E|---------------|----------------------|
|
e|---------------|----------------------|
B|---------------|----------------------|
G|----2--2p1---2-|-----1-(1)--(1)-------|
D|-2--2--2-----2-|-----2-(2)--(2)-------|
A|---------------|----------------------|
E|-0---------0---|-(0)------------0-1-2-|

[Verse 2]
   G           Gadd11             G       Gadd11                  G           Gadd11
   Gtr I
                                                       ~~~~~~
e|----3----(3)-3-|-(3)----3-3---|----3------3-|-(3)-------------|----3----(3)-3-|
B|----3----(3)-1-|-(1)----1-1---|----3------1-|-(1)-0-----------|----3----(3)-1-|
G|----0----(0)-0-|-(0)----0-0---|----0------0-|-(0)-0-----------|----0----(0)-0-|
D|----0----(0)-0-|-(0)----0-0---|-------------|--------3-(3)----|-0-------------|
A|---------------|--------------|-------------|-----------------|-0-------------|
E|-3-------------|--------------|-3-------3---|-----------------|---------------|


e|-(3)-3-(3)----3-3-|------3---(3)-------------|-------------------|
B|-(1)-0-(0)----0-1-|---3-(3)--(3)-------------|----<12>----12s20--|
G|-(0)-0-(0)----0-0-|-0----0---(0)-0-0-0-0-0-0-|-0-----------------|
D|------------------|--------------------------|-------------------|
A|------------------|--------------------------|-------------------|
E|------------------|--------------------------|-------------------|

[Chorus]
   E
   Gtr II
e|---------------|----------------------|---------------|
B|---------------|----------------------|---------------|
G|---------------|----------------------|---------------|
D|---------------|----------------------|---------------|
A|---------------|----------------------|---------------|
E|---------------|----------------------|---------------|
 |
 | Gtr I
e|---------------|----------------------|---------------|
B|---------------|----------------------|---------------|
G|----2--2p1---2-|-----1----------------|----2--2p1---2-|
D|----2--2-----2-|-----2--2-(2)-------0-|-2--2--2-----2-|
A|---------------|--------2-(2)---0h2---|---------------|
E|-0---------0---|-(0)----------0-------|-0---------0---|

e|----------------12-----------------------|
B|-----15b17-(15)----15--------------------|
G|----------------------14pb16r(14)p12-----|
D|-------------------------------------14--|
A|-----------------------------------------|
E|-----------------------------------------|
|
e|-----------------------------------------|
B|-----------------------------------------|
G|------1-----(1)--------------------------|
D|------2-----(2)--------------------------|
A|-----------------------------------------|
E|-(0)-------------------------------------|

e|------------------------------|-----------------------------|
B|------------------------------|--------------15b17==(15)----|
G|-14-12b12.5-(12)--------------|-----------------------------|
D|-----------------14-(14)------|-----------------------------|
A|------------------------------|-----------------------------|
E|------------------------------|-----------------------------|
|
e|------------------------------|-----------------------------|
B|------------------------------|-----------------------------|
G|--------------2-------2p1---2-|-----1-----------------------|
D|--------------2-------2-----2-|-----2--2-(2)--------------0-|
A|------------------------------|--------2-(2)----------0h2---|
E|--0-----------------------0---|-(0)-----------0-------------|

e|-------------------|-----15b17-----15-12---------------------|
B|-(15)r-------------|----------------------15pb17r(15)p==12---|
G|-------------------|-----------------------------------------|
D|-------------------|-----------------------------------------|
A|-------------------|-----------------------------------------|
E|-------------------|-----------------------------------------|
|
e|-------------------|-----------------------------------------|
B|-------------------|-----------------------------------------|
G|--------2--2p1---2-|------1----(1)----(1)-------------x--x-2-|
D|---2----2--2-----2-|------2----(2)----(2)-------------x--x-2-|
A|-------------------|----------------------------------x--x-0-|
E|---0-----------0---|-(0)-------------------------------------|

[Interlude]
   A                                       Gm7
e|-----------------------|--------------||---------------|--------------------|
B|-15b17==(15)-(15)------|-(15)r--------||---------------|--------------------|
G|-----------------------|--------------||---------------|--------------------|
D|-----------------------|--------------||---------------|--------------------|
A|-----------------------|--------------||---------------|--------------------|
E|-----------------------|--------------||---------------|--------------------|
|
e|-----------------------|--------------||---------------|--------------------|
B|-----------------------|--------------||---------------|--------------------|
G|--2--------------------|--(2)---------||------3-(3)----|-(3)----(3)-3-(3)---|
D|--2--------------------|--(2)---------||----3----------|--------------------|
A|--0--------------------|--(0)---------||-5-------------|-(5)----(5)-------5-|
E|-----------------------|--------------||---------------|--------------------|

                                    G
e|-------------------|------------|---------------|---------------|-------------|
B|-------------------|------------|---------------|---------------|-------------|
G|-------------------|------------|-----2-(2)--4--|-5---4-(4)--2--|-------2-----|
D|-------------------|------------|-5-------------|---------------|-5---5----3--|
A|-------------------|------------|---------------|---------------|-------------|
E|-------------------|------------|---------------|---------------|-------------|
|
e|-------------------|------------|---------------|---------------|-------------|
B|------5--(5)---6---|--5---------|---------------|---------------|-------------|
G|-(3)---------3-----|------------|---------------|---------------|-------------|
D|-------------------|------------|-5-------------|-5-------------|-5-----------|
A|-(5)------5------5-|-(5)--------|---------------|---------------|-------------|
E|-------------------|------------|---------------|---------------|-------------|

   Gadd11
e|--------------------|------------------|
B|--------------------|------------------|
G|--------------------|------------------|
D|-5-7-----(7)--------|------------------|
A|--------------------|------------------|
E|--------------------|------------------|
|
e|--------------------|------------------|
B|--------------------|------------------|
G|--------------------|------------------|
D|-3-----3-(3)--------|-3----3-(3)---3s5-|
A|-----3--------(3)-3-|----3---(3)-3-----|
E|--------------------|------------------|

   G
e|--------------------|------------------|-----------------|
B|--------------------|---3-----(3)------|-----------------|
G|---------2-(2)--4---|-5-----------5-4--|-2----2--4-------|
D|-5------------------|------------------|---------------5-|
A|--------------------|------------------|-----------------|
E|--------------------|------------------|-----------------|
|
e|--------------------|------------------|-----------------|
B|--------------------|------------------|-----------------|
G|--------------------|------------------|-----------------|
D|-5----5-----5-------|-5---5-5-(5)------|-5--5-5-(5)--5---|
A|---5-(5)-5--5-----5-|------------------|-----------------|
E|--------------------|------------------|-----------------|

   Gadd11                                 G
e|-------------------|------------------|------------------|-----3-----(3)----|
B|-------------------|------------------|-3----------------|--6---------------|
G|-------------------|------------------|------------------|------------------|
D|-3-----------------|------------------|------------------|------------------|
A|-------------------|------------------|------------------|------------------|
E|-------------------|------------------|------------------|------------------|
|
e|-------------------|------------------|------------------|------------------|
B|-------------------|------------------|------------------|------------------|
G|-------------------|------------------|------------------|------------------|
D|-3-------3-(3)---3-|-3-------3-(3)----|-5----5--5-(5)----|-(5)---5-5-(5)----|
A|---3-(3)---(3)-----|---3-(3)---(3)----|---5-(5)---(5)----|-------5-5-(5)----|
E|-------------------|------------------|------------------|------------------|

                       Gadd11
e|--5--7-----(7)-----|-8--------------|--8--------------|
B|-------------------|----------------|-----------------|
G|-------------------|----------------|-----------------|
D|-------------------|----------------|-----------------|
A|-------------------|----------------|-----------------|
E|-------------------|----------------|-----------------|
|
e|-------------------|----------------|-----------------|
B|-------------------|----------------|-----------------|
G|-------------------|----------------|-----------------|
D|-(5)---5-5-(5)--5s=|=3---3-3-(3)----|-(3)--3-3-(3)----|
A|-(5)---5-5-(5)--5s=|=3-3-3----------|-----------------|
E|-------------------|----------------|--1--------------|

   G
e|---------------------|---------------------|
B|---------------------|---------------------|
G|---------2-(2)---4---|-5-------4-(4)---2---|
D|-5-------------------|---------------------|
A|---------------------|---------------------|
E|---------------------|---------------------|
|
e|---------------------|---------------------|
B|---------------------|---------------------|
G|---------------------|---------------------|
D|-5----5-----5----5---|-5----5-----5----5---|
A|---5-(5)-5-(5)-5---5-|---5-(5)-5-(5)-5---5-|
E|---------------------|---------------------|

                         Gadd11
e|---------------------|-------------------|
B|---------------------|-------------------|
G|------------2--------|-------------------|
D|-5-------5-------3---|-5-7-------(7)-----|
A|---------------------|-------------------|
E|---------------------|-------------------|
|
e|---------------------|-------------------|
B|---------------------|-------------------|
G|---------------------|-------------------|
D|-5----5-----5----5---|---3-(3)-3-(3)-----|
A|---5-(5)-5-(5)-5---5-|-3----3-----3----3-|
E|---------------------|-------------------|

                     G
e|-----------------|---------------|--------------------|
B|-----------------|---------------|-----3-----(3)------|
G|-----------------|-----2-(2)--4--|--4------------5-4--|
D|-----------------|-5-------------|--------------------|
A|-----------------|---------------|--------------------|
E|-----------------|---------------|--------------------|
|
e|-----------------|---------------|--------------------|
B|-----------------|---------------|---------0-(0)------|
G|-----------------|-----0--0------|-(0)---0-0-(0)------|
D|------3-(3)------|---------------|-----0------0-------|
A|---3--------3----|---------------|--------------------|
E|-1-------1-----1-|-3-------------|--------------------|

                       Gadd11
e|-------------------|---------------|
B|-------------------|---------------|
G|--2--2-4-----------|---------------|
D|----------------5--|-3-------------|
A|-------------------|---------------|
E|-------------------|---------------|
|
e|-------------------|---------------|
B|-(0)-----0-(0)-----|---------------|
G|-(0)-----0-(0)-----|------2-(2)----|
D|-------------------|---------------|
A|-------------------|-3--3----------|
E|-------------------|---------------|

                    G
e|----------------|----------------|-----3---(3)----|
B|----------------|-3--------------|--6-------------|
G|----------------|----------------|----------------|
D|----------------|----------------|----------------|
A|----------------|----------------|----------------|
E|----------------|----------------|----------------|
|
e|----------------|----------------|----------------|
B|----------------|-----3-(3)-3--3-|-(3)------------|
G|----------------|----------------|----------------|
D|----3--(3)--3s5-|-5--------------|-(5)------------|
A|----3--(3)--3s5-|-5--------------|-(5)------------|
E|-1--------------|----------------|----------------|

   C               C7                                         G
e|---------------|----------------|------------|------------|-----------------|
B|-5-------------|-(5)------------|-(5)--------|-(5)--------|-----------------|
G|---------------|----------------|------------|------------|-----------------|
D|---------------|----------------|------------|------------|-----------------|
A|---------------|----------------|------------|------------|-----------------|
E|---------------|----------------|------------|------------|-----------------|
|
e|---------------|----------------|------------|------------|-3-----3-(3)-----|
B|---------------|----------------|------------|------------|---3-------------|
G|-5---5-(5)---5s|==3----3-(3)----|-(3)--------|-(3)--------|-----0--------0--|
D|---------------|----------------|------------|------------|-----------------|
A|---------------|----------------|------------|------------|-----------------|
E|---------------|----------------|------------|------------|-----------------|

   Dadd11                Em7/B
   Gtr I
e|--5------5-(5)-------|--7------7-(7)--------|
B|-----3---------3-3s5-|-----5---------5-(5)--|
G|-(0)---0---------0---|-(0)---0----------0---|
D|---------------------|----------------------|
A|---------------------|----------------------|
E|---------------------|----------------------|

   Am7/E                Bm/D
e|--8------8-(8)--------|-10------10-(10)------|
B|-----5---------5-(5)--|-----8-----------8-8--|
G|-(0)---0----------0---|-(0)---0-----------0--|
D|----------------------|----------------------|
A|----------------------|----------------------|
E|----------------------|----------------------|

   C                      Dadd4
e|-12------12-(12)------|-14-------14-(14)--------|
B|-----5-----------8-8--|-----10-----------10-10--|
G|-(0)---0-----------0--|-(0)----0-------------0--|
D|----------------------|-------------------------|
A|----------------------|-------------------------|
E|----------------------|-------------------------|

   G
e|-15--------------15-|-15--------|-15--------|-----||
B|-----12-12----12----|-----------|-----------|-----||
G|-(0)-----0----------|-----------|-----------|-----||
D|--------------------|-----------|-----------|-----||
A|--------------------|-----------|-----------|-----||
E|--------------------|-----------|-----------|-----||

   E
e|---------------|---------------------|---------------|----------------|
B|---------------|---------------------|---------------|----------------|
G|----2--2p1---2-|-----1---------------|----2--2p1---2-|-----1-(1)------|
D|----2--2-----2-|-----2--2-(2)------0-|-2--2--2-----2-|-----2-(2)------|
A|---------------|--------2-(2)--0h2---|---------------|----------------|
E|-0---------0---|-(0)-----------------|-0---------0---|-(0)------------|

e|---------------|---------------------|---------------|----------------------||
B|---------------|---------------------|---------------|----------------------||
G|----2--2p1---2-|-----1---------------|----2--2p1---2-|-----1-(1)--(1)-------||
D|----2--2-----2-|-----2--2-(2)------0-|-2--2--2-----2-|-----2-(2)--(2)-------||
A|---------------|--------2-(2)--0h2---|---------------|----------------------||
E|-0---------0---|-(0)-----------------|-0---------0---|-(0)------------0-1-2-||

[Verse 3]
               Gadd11                 G           Gadd11
e|-------------3-|-(3)----(3)-3-3-3-|-(3)--3------3-|-(3)-3-(3)-------|
B|-------------1-|-(1)----(1)-0-1-3-|-(3)--3------1-|-(1)-0-(0)-------|
G|----0----(0)-0-|-(0)----(0)-0-0-0-|-(0)--0------0-|-(0)-0-(0)-------|
D|----0----(0)---|------------------|---------------|-------------3---|
A|---------------|------------------|---------------|-----------------|
E|-3--------3----|------------------|--3--------3---|-----------------|

   G         Gadd11                 G7
e|-----------3-|-(3)-3-(3)--------|---------------------------------|
B|-----------3-|-(3)-3-(3)--------|---------------------------------|
G|----0------5-|-(5)-4-(4)--------|-----4p0-(0)-4p0-5p0-4p0-5p0-5p0-|
D|----0--------|------------------|-0h2-----------------------------|
A|-------------|------------------|---------------------------------|
E|-3-------3---|--------------3-3-|---------------------------------|

[Chorus]
   Gtr II
e|-------------------------||---------------|
B|-------------------------||---------------|
G|-------------------------||---------------|
D|-------------------------||---------------|
A|-------------------------||---------------|
E|-------------------------||---------------|
 |
 | Gtr I
e|-------------------------||---------------|
B|-------0-(0)-------------||---------------|
G|-7p0-7-0-(0)-2-(2)s===21-||----2--2p1---2-|
D|-------------------------||----2--2-----2-|
A|-------------------------||---------------|
E|-------------------------||-0---------0---|

e|--------------------------|--------------------|
B|--------------15b17-(15)--|-(15)---------------|
G|--------------------------|--------------------|
D|--------------------------|--------------------|
A|--------------------------|--------------------|
E|--------------------------|--------------------|
|
e|--------------------------|--------------------|
B|--------------------------|--------------------|
G|-----1--------------------|-------2--2p1---2---|
D|-----2--2-(2)-------------|-------2--2-----2---|
A|--------2-(2)-------------|--------------------|
E|-(0)----------------------|---0----------0-----|

e|--15b17-----15-12--------------------|
B|--------------------15pb17r(15)p==12-|
G|-------------------------------------|
D|-------------------------------------|
A|-------------------------------------|
E|-------------------------------------|
|
e|-------------------------------------|
B|-------------------------------------|
G|---1----(1)--------------------------|
D|---2----(2)------------------------0-|
A|-----------------------------0--2----|
E|-------------------------------------|

e|----------------------------|----------------------12------|
B|-15b17-15b17==(15)----------|-(15)r----------15b17---------|
G|----------------------------|------------------------------|
D|----------------------------|------------------------------|
A|----------------------------|------------------------------|
E|----------------------------|------------------------------|
|
e|----------------------------|------------------------------|
B|----------------------------|------------------------------|
G|----------------2---2p1---2-|-------1----------------------|
D|--2-------------2---2-----2-|-------2--2-(2)------------0--|
A|--2-------------------------|----------2-(2)--------0h2----|
E|------------------------0---|---0--------------------------|

e|------------------|--------------------------------------------------------||
B|------------------|--------------------------------------------------------||
G|------------------|--------------------------------------------------------||
D|------------------|--------------------------------------------------------||
A|------------------|--------------------------------------------------------||
E|------------------|--------------------------------------------------------||
|
 | Gtr II
e|-(12)-------------|--------------------------------------------------------||
B|------------------|--------------------------------------------------------||
G|------------------|-----14pb16==(14)r(14)p12-14pb16r(14)p12-14pb16r(14)p12-||
D|------------------|--------------------------------------------------------||
A|------------------|--------------------------------------------------------||
E|------------------|--------------------------------------------------------||
|
 | Gtr I
e|------------------|--------------------------------------------------------||
B|------------------|--------------------------------------------------------||
G|-------2--2p1---2-|------1-------(1)---------(1)---------------------------||
D|---2---2--2-----2-|------2-------(2)---------(2)---------------------------||
A|------------------|--------------------------------------------------------||
E|---0----------0---|-(0)--------------------------------------2s============||

[Piano Solo]
   B
e|---------7--------------7-------------(7)--5------|
B|---------9--------------7-------------(7)--5------|
G|---------9--------------8-------------(8)--6------|
D|--------------------------------------------------|
A|--------------------------------------------------|
E|--------------------------------------------------|
|
e|--------------------------------------------------|
B|--------------------------------------------------|
G|-14b16--14pb16r(14)-12-14pb16r(14)p12-----12pb14r=|
D|--------------------------------------14----------|
A|--------------------------------------------------|
E|--------------------------------------------------|
|
e|--------------------------------------------------|
B|--------------------------------------------------|
G|--------------------------------------------------|
D|---------9-----------------------------9----------|
A|--------------------------------------------------|
E|--7-----------------------------7-----------------|

   A                   E
e|--(5)-5-5--5-5-5-4-|-----------------------------------------|
B|--(5)-5-7--5---7-5-|------17----17----17------17----17----17-|
G|--(6)-6-7--6---7-4-|---15-16-15-16-15-16---15-16-15-16-15-16-|
D|-------------------|-----------------------------------------|
A|-------------------|-----------------------------------------|
E|-------------------|-----------------------------------------|
|
e|-------------------|-----------------------------------------|
B|-------------------|-----------------------------------------|
G|-(12)--------------|-----------------------------------------|
D|-------------------|-----------------------------------------|
A|-------------------|-----------------------------------------|
E|-------------------|-----------------------------------------|
|
e|-------------------|-----------------------------------------|
B|-------------------|-----------------------------------------|
G|-------------------|-----------------------------------------|
D|--------7------7---|-----------------------------------------|
A|-------------------|-------7-----------6p5-----7-------------|
E|------5------5-----|-----------------------------------------|

                                         B               A
e|-------------------------------------|-7--7--7---7-5-|--5-5--5---5----|
B|----17----17----17----17-17----------|-7--9--7---7-5-|--5-7--5-5---5--|
G|-15-16-15-16-15-16-15-16-12----------|-8--9--8---8-6-|--6-7--6--------|
D|----------------------------14-12----|---------------|----------------|
A|----------------------------------14-|---------------|----------------|
E|-------------------------------------|---------------|----------------|
|
 | Gtr I
e|-------------------------------------|---------------|----------------|
B|-------------------------------------|---------------|----------------|
G|-------------------------------------|---------------|----------------|
D|-------------------------------------|----9------9---|----7------7----|
A|-----------------7--------------5h=7-|---------------|----------------|
E|-------------------------------------|-7-------7-----|--5------5------|

   E
e|----------------------------|
B|-17---17-----17----17-17----|
G|-12---14--15-16-15-16-14-12-|
D|----------------------------|
A|----------------------------|
E|----------------------------|
|
 |    PM              PM
e|----------------------------|
B|----------------------------|
G|----------------------------|
D|----------------------------|
A|-------7---------------7----|
E|----0---------------0-------|

                                                        B
e|----------------------------------------------------|-7--7--7---7-5-|
B|----17----17------17----17----17-----17-17-17-------|-7--9--7---9-5-|
G|-15-16-15-16---15-16-15-16-15-16--15-16-14-12-------|-8--9--8---9-6-|
D|----------------------------------------------14-12-|---------------|
A|----------------------------------------------------|---------------|
E|----------------------------------------------------|---------------|
|
 |             PM                             PM
e|----------------------------------------------------|---------------|
B|----------------------------------------------------|---------------|
G|----------------------------------------------------|---------------|
D|----------------------------------------------------|----9------9---|
A|-------------------------7---------------------7----|---------------|
E|-------------0------------------------------0-------|---------7-----|

   A              E
e|--5-5--5---5--|----------------------------------------|
B|--5-7--5---7--|----17-17-17----------17-------------17-|
G|--6-7--6---7--|-15-16-16-14-12----15-16-14-12----15-16-|
D|--------------|----------------14-------------14-------|
A|--------------|----------------------------------------|
E|--------------|----------------------------------------|
|
 |                       PM                PM
e|--------------|----------------------------------------|
B|--------------|----------------------------------------|
G|--------------|----------------------------------------|
D|----7------7--|----------------------------------------|
A|--------------|-----------7--------------------7-------|
E|--5------5----|--------0-----------------0-------------|

                                            B                 A
e|----------------------------------------|-7---7---7-----5-|--5-5--5-------||
B|-------------17-------------17----------|-7---9---7-----5-|--5-7--5-------||
G|-14-12----15-16-14-12----15-16-14-12----|-8---9---8-----6-|--6-7--6---6---||
D|-------14-------------14-------------14-|---9---9---9-9---|-------------5-||
A|----------------------------------------|-----------------|---------------||
E|----------------------------------------|-----------------|---------------||
|
 |                 PM---------------------------------------------------------||
e|----------------------------------------|-----------------|-----------------||
B|----------------------------------------|-----------------|-----------------||
G|----------------------------------------|-----------------|-----------------||
D|----------------------------------------|-----9-------9---|----7------7-----||
A|--------7-----7--7-----7-----7--7-----7-|-----------------|-----------------||
E|----------------------------------------|-7-7-------7-----|--5------5-------||

[Guitar Solo]
   C
   Gtr I
e|---------------------------------------------|
B|-------------11------------------------------|
G|--10b12-(10)----10b12-10b12--(10)-10b12-(10)-|
D|---------------------------------------------|
A|---------------------------------------------|
E|---------------------------------------------|

e|-8-------------------------------------|-8----------------------------10pb11===|
B|-8------------8-11-11b13--(11)-------8-|---11-11b13-11-11pb13===(11)r----------|
G|---10b12-(10)------------------10b12---|---------------------------------------|
D|---------------------------------------|---------------------------------------|
A|---------------------------------------|---------------------------------------|
E|---------------------------------------|---------------------------------------|

                                              [Outro Chorus]
                                                E
e|-(10)r-10b11-10b11--10b11==(10)--(10)r-0-0-||---------------|
B|---------------------------------------0-0-||---------------|
G|-------------------------------------------||----2--2p1---2-|
D|-------------------------------------------||----2--2-----2-|
A|-------------------------------------------||---------------|
E|-------------------------------------------||-0---------0---|

e|---------------------|---------------|----------------|
B|---------------------|---------------|----------------|
G|-----1---------------|----2--2p1---2-|-----1-(1)------|
D|-----2--2-(2)------0-|-2--2--2-----2-|-----2-(2)------|
A|--------2-(2)--0h2---|---------------|----------------|
E|-(0)-----------------|-0---------0---|-(0)------------|

e|---------------|---------------------|---------------|----------------|
B|---------------|---------------------|---------------|----------------|
G|----2--2p1---2-|-----1---------------|----2--2p1---2-|-----1-(1)------|
D|----2--2-----2-|-----2--2-(2)------0-|-2--2--2-----2-|-----2-(2)------|
A|---------------|--------2-(2)--0h2---|---------------|----------------|
E|-0---------0---|-(0)-----------------|-0---------0---|-(0)------------|

e|---------------|---------------------|---------------|----------------|
B|---------------|---------------------|---------------|----------------|
G|----2--2p1---2-|-----1---------------|----2--2p1---2-|-----1-(1)------|
D|----2--2-----2-|-----2--2-(2)------0-|-2--2--2-----2-|-----2-(2)------|
A|---------------|--------2-(2)--0h2---|---------------|----------------|
E|-0---------0---|-(0)-----------------|-0---------0---|-(0)------------|

e|---------------|---------------------|---------------|---------------------|
B|---------------|---------------------|---------------|---------------------|
G|----2--2p1---2-|-----1---------------|----2--2p1---2-|-----1-(1)-----------|
D|----2--2-----2-|-----2--2-(2)------0-|-2--2--2-----2-|-----2-(2)--------0--|
A|---------------|--------2-(2)--0h2---|---------------|--------------0h2----|
E|-0---------0---|-(0)-----------------|-0---------0---|-(0)-----------------|

e|---------------|----------------|---------------|---------------------|
B|---------------|----------------|---------------|---------------------|
G|----2--2p1---2-|-----1-(1)------|----2--2p1---2-|-----1---------------|
D|-2--2--2-----2-|-----2-(2)------|----2--2-----2-|-----2--2-(2)------0-|
A|---------------|----------------|---------------|--------2-(2)--0h2---|
E|-0---------0---|-(0)------------|-0---------0---|-(0)-----------------|

e|---------------|-----------------|---------------|--------------|
B|---------------|-----------------|---------------|--------------|
G|----2--2p1---2-|--1-(1)----------|----2--2p1---2-|---1-(1)------|
D|-2--2--2-----2-|--2-(2)--------0-|-2--2--2-----2-|---2-(2)------|
A|---------------|-----------0h2---|---------------|--------------|
E|-0---------0---|-----------------|-0---------0---|-0------------|

[Fade Out]
   PM                     ~~~~~~
e|--------------|----------------|--------------|
B|--------------|----------------|--------------|
G|--------------|---------0-(0)--|--------------|
D|-----2-----2--|----0-2---------|----2-----0-2-|
A|--------------|----------------|--------------|
E|-0-0-----0----|--0-------------|-0------0-----|

                                             ~~~~
e|-------------------|--------------|-------------|-----------*|
B|-------------------|--------------|-------------|-----------*|
G|--------2pb4-2p0---|--------------|-------------|-----------*|
D|----2------------2-|----2-----0-2-|----2---0-0--|----2------*|
A|-------------------|--------------|-------------|-----------*|
E|--0----------------|-0------0-----|-0-----------|-0---------*|

Tablature Legend
----------------
 h   - hammer-on
 p   - pull-off
 b   - bend
 pb  - pre-bend
 r   - bend release (if no number after the r, then release immediately)
 /\  - slide into or out of (from/to "nowhere")
 s   - legato slide
 S   - shift slide
  - natural harmonic
[n]  - artificial harmonic
n(n) - tapped harmonic
 ~   - vibrato
 tr  - trill
 T   - tap
 TP  - trem. picking
 PM  - palm muting
\n/  - tremolo bar dip; n = amount to dip
 \n  - tremolo bar down
 n/  - tremolo bar up
/n\  - tremolo bar inverted dip
 =   - hold bend; also acts as connecting device for hammers/pulls
 <>  - volume swell (louder/softer)
 x   - on rhythm slash represents muted slash
 o   - on rhythm slash represents single note slash


                                WOMAN FROM TOKYO
                           As recorded by Deep Purple
                  (From the 1973 Album WHO DO WE THINK WE ARE)

Words and Music by Jon Lord,Ritchie Blackmore,Ian Gillan,Roger Glover,Ian Paice

Gtr I tuning: (E A D G B E) - 'Untitled'
Gtr II tuning: (E A D G B E) - 'Untitled'

[Intro]
   Q=124
             E
  4/4
   Gtr I
e|---------|---------------|---------------------|
B|---------|---------------|---------------------|
G|---------|----2--2p1---2-|--1------------------|
D|---------|----2--2-----2-|--2--2-(2)---------0-|
A|---------|-----------2---|-----2-(2)----0h=2---|
E|---------|-0---------0---|-----------0-(0)-----|


e|-------------------|-----------------------|---------------|
B|----------3-(3)----|-------7-(7)----(7)s=2-|---------------|
G|-------------------|-----------------------|---------------|
D|------3s4---(4)----|--6s=7---(7)----(7)s=2-|---------------|
A|-------------------|-----------------------|---------------|
E|-------------------|-----------------------|---------------|
|
 | Gtr I
 |                      ~~~
e|-------------------|-----------------------|---------------|
B|-------------------|-----------------------|---------------|
G|-------------------|-----------------------|----2--2p1---1-|
D|-(0)---------------|-(0)-------------------|----2--2-----2-|
A|-------------------|-----------------------|---------------|
E|-------------------|-----------------------|-0---------0---|


e|-----------------------|---------------------------|--------------------|
B|-----------------------|------------12-(12)-----10-|-----8---6---5---3--|
G|-----------------------|---------------------------|--------------------|
D|-----------------------|------11s12----------10----|--9----7---5---3----|
A|-----------------------|---------------------------|--------------------|
E|-----------------------|---------------------------|--------------------|
|
e|-----------------------|---------------------------|--------------------|
B|-----------------------|---------------------------|--------------------|
G|-----1-----------------|---------------------------|--------------------|
D|-----2--2--3-(3)--4--5-|-(5)-----------------------|-(5)----------------|
A|--------2--3-(3)--4--5-|-(5)-----------------------|-(5)----------------|
E|-(0)-------------------|---------------------------|--------------------|


e|-------------|--------------|-------------|---------------|
B|-5-----------|--------------|-------------|---------------|
G|-------------|----------7-9-|-------------|----------7-9--|
D|-2-----------|----------5-7-|-------------|----------5-7--|
A|-------------|--------7-----|-------------|--------7------|
E|-------------|--------------|-------------|---------------|
|
e|-------------|--------------|-------------|---------------|
B|-------------|--------------|-------------|---------------|
G|-------------|--------------|-------------|---------------|
D|----2----0h2-|----2---------|----2----0h2-|----2----------|
A|-------------|--------------|-------------|---------------|
E|-0-----------|-0------------|-0-----------|-0-------------|


e|-------------|--------------|-------------|---------------|
B|-------------|----------3---|-------------|----------3----|
G|-------------|----------4-6-|-------------|----------4-6--|
D|-------------|--------2-5-7-|-------------|--------2-5-7--|
A|-------------|--------------|-------------|---------------|
E|-------------|--------------|-------------|---------------|
|
e|-------------|--------------|-------------|---------------|
B|-------------|--------------|-------------|---------------|
G|-------------|--------------|-------------|---------------|
D|----2----0h2-|----2---------|----2----0h2-|----2----------|
A|-------------|--------------|-------------|---------------|
E|-0-----------|-0------------|-0-----------|-0-------------|


e|------------------|------------|--------------------|------------------------|
B|------------------|------------|----14--14-12----14-|-----12-----------------|
G|------------------|------------|----14--14-13----14-|-----13--13-(13)--------|
D|------------------|------------|----14--14----14-14-|-----14--14-(14)--------|
A|------------------|------------|--------------------|------------------------|
E|------------------|------------|--------------------|------------------------|
|
 |       ~~~~~~
e|-3----------------|------------|--------------------|------------------------|
B|---5p3------------|------------|--------------------|------------------------|
G|-------4-(4)------|-(4)--------|-----2---2p=1-----2-|------1-----------------|
D|------------------|------------|-----2---2--------2-|------2---2--(2)------0-|
A|------------------|------------|--------------------|----------2--(2)--0h2---|
E|------------------|------------|-0-------------0----|-(0)--------------------|


e|--------------------|-------------------|
B|----14--14-12----14-|-----12s=====5-----|
G|----14--14-13----14-|-----13s=====6-----|
D|----14--14----14-14-|-----14s=====7-----|
A|--------------------|-------------------|
E|--------------------|-------------------|
|
e|--------------------|-------------------|
B|--------------------|-------------------|
G|-----2---2p=1-----2-|------1-(1)--------|
D|-2---2---2--------2-|------2-(2)--------|
A|--------------------|-------------------|
E|-0-------------0----|-(0)---------------|


e|--------------------|-------------------------|
B|----14--14-12----14-|-----12------------------|
G|----14--14-13----14-|-----13--13-(13)---------|
D|----14--14----14-14-|-----14--14-(14)---------|
A|--------------------|-------------------------|
E|--------------------|-------------------------|
|
e|--------------------|-------------------------|
B|--------------------|-------------------------|
G|-----2---2p=1-----1-|------1------------------|
D|-----2---2--------2-|------2---2--(2)------0--|
A|--------------------|----------2--(2)--0h2----|
E|-0-------------0----|-(0)---------------------|


e|--------------------|-------------------------||
B|----14--14-12----14-|-----12s=====5-----------||
G|----14--14-13----14-|-----13s=====6-----------||
D|----14--14----14-14-|-----14s=====7-----------||
A|--------------------|-------------------------||
E|--------------------|-------------------------||
|
e|--------------------|-------------------------||
B|--------------------|-------------------------||
G|-----2---2p=1-----1-|------1-(1)----(1)-------||
D|-2---2---2--------2-|------2-(2)----(2)-------||
A|--------------------|-------------------------||
E|-0-------------0----|-(0)---------------0-1-2-||


[Verse 1]
      G        Gadd11
e|---------------|-------------------|
B|---------------|-------------------|
G|---------------|-------------------|
D|---------------|-------------------|
A|---------------|-------------------|
E|---------------|-------------------|
|
e|----3----(3)-3-|-(3)----(3)-3-3-3--|
B|----0----(0)-1-|-(1)----(1)-1-1-1--|
G|----0----(0)-0-|-(0)----(0)-0-0-0--|
D|----0----(0)-3-|-(3)----(3)--------|
A|---------------|-------------------|
E|-3-----------3-|-(3)----(3)--------|


   G             Gadd11                           Gadd11
   Gtr I
            \1/                  \1/
                           PM
e|-(3)--3--(3)-----3-|-(3)-3------------|----3------3-|-3--3--(3)--3-3-3-|
B|-(1)--3--(3)-----1-|-(1)-1------------|----3------3-|-3--3--(3)--3-3-3-|
G|-(0)--0--(0)-----0-|-(0)-0--2-(2)-----|----0------0-|-0--0--(0)--0-0-0-|
D|------0--(0)-------|--------3-(3)-----|----0------0-|-0--0--(0)--0-0-0-|
A|-------------------|------------------|-------------|------------------|
E|--3------------3---|------------------|-3-------3---|-3--3--(3)--3-3-3-|


[Chorus]
   G7
e|-(3)--3----------|----------------------||---------------|
B|-(3)--0----------|----------------------||---------------|
G|-(0)--0----------|----------------------||----2--2p1---2-|
D|-(0)-----------3-|-(3)------5-(5)---3s0-||----2--2-----2-|
A|-----------3h5---|------3-5-------------||---------------|
E|-(3)-------------|----------------------||-0---------0---|


   E
   Gtr II
e|----------------------|---------------|
B|----------------------|---------------|
G|----------------------|---------------|
D|----------------------|---------------|
A|----------------------|---------------|
E|----------------------|---------------|
|
 | Gtr I
e|----------------------|---------------|
B|----------------------|---------------|
G|-----1----------------|----2--2p1---2-|
D|-----2--2-(2)-------0-|-2--2--2-----2-|
A|--------2-(2)---0h2---|---------------|
E|-(0)----------0-------|-0---------0---|


e|------------------------------------------------|
B|-----15b17-----15-------------------------------|
G|------------------14b16-14pb16==(14)r14p12-(12)-|
D|------------------------------------------------|
A|------------------------------------------------|
E|------------------------------------------------|
|
e|------------------------------------------------|
B|------------------------------------------------|
G|------1----(1)----------------------------------|
D|------2----(2)----------------------------------|
A|------------------------------------------------|
E|-(0)--------------------------------------------|


e|-----------------------------|----------------------|
B|-----------------------------|----------------------|
G|-14b16-14b16==(14)r----------|----------------------|
D|-----------------------------|----------------------|
A|-----------------------------|----------------------|
E|-----------------------------|----------------------|
|
e|-----------------------------|----------------------|
B|-----------------------------|----------------------|
G|----------------2----2p1---2-|-----1----------------|
D|----------------2----2-----2-|-----2--2-(2)-------0-|
A|-----------------------------|--------2-(2)---0h2---|
E|--0----------------------0---|-(0)----------0-------|


e|---------------|----------------------|
B|---------------|----------------------|
G|---------------|----------------------|
D|---------------|----------------------|
A|---------------|----------------------|
E|---------------|----------------------|
|
e|---------------|----------------------|
B|---------------|----------------------|
G|----2--2p1---2-|-----1-(1)--(1)-------|
D|-2--2--2-----2-|-----2-(2)--(2)-------|
A|---------------|----------------------|
E|-0---------0---|-(0)------------0-1-2-|


[Verse 2]
   G           Gadd11             G       Gadd11                  G           Gadd11
   Gtr I
                                                       ~~~~~~
e|----3----(3)-3-|-(3)----3-3---|----3------3-|-(3)-------------|----3----(3)-3-|
B|----3----(3)-1-|-(1)----1-1---|----3------1-|-(1)-0-----------|----3----(3)-1-|
G|----0----(0)-0-|-(0)----0-0---|----0------0-|-(0)-0-----------|----0----(0)-0-|
D|----0----(0)-0-|-(0)----0-0---|-------------|--------3-(3)----|-0-------------|
A|---------------|--------------|-------------|-----------------|-0-------------|
E|-3-------------|--------------|-3-------3---|-----------------|---------------|


e|-(3)-3-(3)----3-3-|------3---(3)-------------|-------------------|
B|-(1)-0-(0)----0-1-|---3-(3)--(3)-------------|----<12>----12s20--|
G|-(0)-0-(0)----0-0-|-0----0---(0)-0-0-0-0-0-0-|-0-----------------|
D|------------------|--------------------------|-------------------|
A|------------------|--------------------------|-------------------|
E|------------------|--------------------------|-------------------|


[Chorus]
   E
   Gtr II
e|---------------|----------------------|---------------|
B|---------------|----------------------|---------------|
G|---------------|----------------------|---------------|
D|---------------|----------------------|---------------|
A|---------------|----------------------|---------------|
E|---------------|----------------------|---------------|
|
 | Gtr I
e|---------------|----------------------|---------------|
B|---------------|----------------------|---------------|
G|----2--2p1---2-|-----1----------------|----2--2p1---2-|
D|----2--2-----2-|-----2--2-(2)-------0-|-2--2--2-----2-|
A|---------------|--------2-(2)---0h2---|---------------|
E|-0---------0---|-(0)----------0-------|-0---------0---|


e|----------------12-----------------------|
B|-----15b17-(15)----15--------------------|
G|----------------------14pb16r(14)p12-----|
D|-------------------------------------14--|
A|-----------------------------------------|
E|-----------------------------------------|
|
e|-----------------------------------------|
B|-----------------------------------------|
G|------1-----(1)--------------------------|
D|------2-----(2)--------------------------|
A|-----------------------------------------|
E|-(0)-------------------------------------|


e|------------------------------|-----------------------------|
B|------------------------------|--------------15b17==(15)----|
G|-14-12b12.5-(12)--------------|-----------------------------|
D|-----------------14-(14)------|-----------------------------|
A|------------------------------|-----------------------------|
E|------------------------------|-----------------------------|
|
e|------------------------------|-----------------------------|
B|------------------------------|-----------------------------|
G|--------------2-------2p1---2-|-----1-----------------------|
D|--------------2-------2-----2-|-----2--2-(2)--------------0-|
A|------------------------------|--------2-(2)----------0h2---|
E|--0-----------------------0---|-(0)-----------0-------------|


e|-------------------|-----15b17-----15-12---------------------|
B|-(15)r-------------|----------------------15pb17r(15)p==12---|
G|-------------------|-----------------------------------------|
D|-------------------|-----------------------------------------|
A|-------------------|-----------------------------------------|
E|-------------------|-----------------------------------------|
|
e|-------------------|-----------------------------------------|
B|-------------------|-----------------------------------------|
G|--------2--2p1---2-|------1----(1)----(1)-------------x--x-2-|
D|---2----2--2-----2-|------2----(2)----(2)-------------x--x-2-|
A|-------------------|----------------------------------x--x-0-|
E|---0-----------0---|-(0)-------------------------------------|


[Interlude]
   A                                       Gm7
e|-----------------------|--------------||---------------|--------------------|
B|-15b17==(15)-(15)------|-(15)r--------||---------------|--------------------|
G|-----------------------|--------------||---------------|--------------------|
D|-----------------------|--------------||---------------|--------------------|
A|-----------------------|--------------||---------------|--------------------|
E|-----------------------|--------------||---------------|--------------------|
|
e|-----------------------|--------------||---------------|--------------------|
B|-----------------------|--------------||---------------|--------------------|
G|--2--------------------|--(2)---------||------3-(3)----|-(3)----(3)-3-(3)---|
D|--2--------------------|--(2)---------||----3----------|--------------------|
A|--0--------------------|--(0)---------||-5-------------|-(5)----(5)-------5-|
E|-----------------------|--------------||---------------|--------------------|


                                    G
e|-------------------|------------|---------------|---------------|-------------|
B|-------------------|------------|---------------|---------------|-------------|
G|-------------------|------------|-----2-(2)--4--|-5---4-(4)--2--|-------2-----|
D|-------------------|------------|-5-------------|---------------|-5---5----3--|
A|-------------------|------------|---------------|---------------|-------------|
E|-------------------|------------|---------------|---------------|-------------|
|
e|-------------------|------------|---------------|---------------|-------------|
B|------5--(5)---6---|--5---------|---------------|---------------|-------------|
G|-(3)---------3-----|------------|---------------|---------------|-------------|
D|-------------------|------------|-5-------------|-5-------------|-5-----------|
A|-(5)------5------5-|-(5)--------|---------------|---------------|-------------|
E|-------------------|------------|---------------|---------------|-------------|


   Gadd11
e|--------------------|------------------|
B|--------------------|------------------|
G|--------------------|------------------|
D|-5-7-----(7)--------|------------------|
A|--------------------|------------------|
E|--------------------|------------------|
|
e|--------------------|------------------|
B|--------------------|------------------|
G|--------------------|------------------|
D|-3-----3-(3)--------|-3----3-(3)---3s5-|
A|-----3--------(3)-3-|----3---(3)-3-----|
E|--------------------|------------------|


   G
e|--------------------|------------------|-----------------|
B|--------------------|---3-----(3)------|-----------------|
G|---------2-(2)--4---|-5-----------5-4--|-2----2--4-------|
D|-5------------------|------------------|---------------5-|
A|--------------------|------------------|-----------------|
E|--------------------|------------------|-----------------|
|
e|--------------------|------------------|-----------------|
B|--------------------|------------------|-----------------|
G|--------------------|------------------|-----------------|
D|-5----5-----5-------|-5---5-5-(5)------|-5--5-5-(5)--5---|
A|---5-(5)-5--5-----5-|------------------|-----------------|
E|--------------------|------------------|-----------------|


   Gadd11                                 G
e|-------------------|------------------|------------------|-----3-----(3)----|
B|-------------------|------------------|-3----------------|--6---------------|
G|-------------------|------------------|------------------|------------------|
D|-3-----------------|------------------|------------------|------------------|
A|-------------------|------------------|------------------|------------------|
E|-------------------|------------------|------------------|------------------|
|
e|-------------------|------------------|------------------|------------------|
B|-------------------|------------------|------------------|------------------|
G|-------------------|------------------|------------------|------------------|
D|-3-------3-(3)---3-|-3-------3-(3)----|-5----5--5-(5)----|-(5)---5-5-(5)----|
A|---3-(3)---(3)-----|---3-(3)---(3)----|---5-(5)---(5)----|-------5-5-(5)----|
E|-------------------|------------------|------------------|------------------|


                       Gadd11
e|--5--7-----(7)-----|-8--------------|--8--------------|
B|-------------------|----------------|-----------------|
G|-------------------|----------------|-----------------|
D|-------------------|----------------|-----------------|
A|-------------------|----------------|-----------------|
E|-------------------|----------------|-----------------|
|
e|-------------------|----------------|-----------------|
B|-------------------|----------------|-----------------|
G|-------------------|----------------|-----------------|
D|-(5)---5-5-(5)--5s=|=3---3-3-(3)----|-(3)--3-3-(3)----|
A|-(5)---5-5-(5)--5s=|=3-3-3----------|-----------------|
E|-------------------|----------------|--1--------------|


   G
e|---------------------|---------------------|
B|---------------------|---------------------|
G|---------2-(2)---4---|-5-------4-(4)---2---|
D|-5-------------------|---------------------|
A|---------------------|---------------------|
E|---------------------|---------------------|
|
e|---------------------|---------------------|
B|---------------------|---------------------|
G|---------------------|---------------------|
D|-5----5-----5----5---|-5----5-----5----5---|
A|---5-(5)-5-(5)-5---5-|---5-(5)-5-(5)-5---5-|
E|---------------------|---------------------|


                         Gadd11
e|---------------------|-------------------|
B|---------------------|-------------------|
G|------------2--------|-------------------|
D|-5-------5-------3---|-5-7-------(7)-----|
A|---------------------|-------------------|
E|---------------------|-------------------|
|
e|---------------------|-------------------|
B|---------------------|-------------------|
G|---------------------|-------------------|
D|-5----5-----5----5---|---3-(3)-3-(3)-----|
A|---5-(5)-5-(5)-5---5-|-3----3-----3----3-|
E|---------------------|-------------------|


                     G
e|-----------------|---------------|--------------------|
B|-----------------|---------------|-----3-----(3)------|
G|-----------------|-----2-(2)--4--|--4------------5-4--|
D|-----------------|-5-------------|--------------------|
A|-----------------|---------------|--------------------|
E|-----------------|---------------|--------------------|
|
e|-----------------|---------------|--------------------|
B|-----------------|---------------|---------0-(0)------|
G|-----------------|-----0--0------|-(0)---0-0-(0)------|
D|------3-(3)------|---------------|-----0------0-------|
A|---3--------3----|---------------|--------------------|
E|-1-------1-----1-|-3-------------|--------------------|


                       Gadd11
e|-------------------|---------------|
B|-------------------|---------------|
G|--2--2-4-----------|---------------|
D|----------------5--|-3-------------|
A|-------------------|---------------|
E|-------------------|---------------|
|
e|-------------------|---------------|
B|-(0)-----0-(0)-----|---------------|
G|-(0)-----0-(0)-----|------2-(2)----|
D|-------------------|---------------|
A|-------------------|-3--3----------|
E|-------------------|---------------|


                    G
e|----------------|----------------|-----3---(3)----|
B|----------------|-3--------------|--6-------------|
G|----------------|----------------|----------------|
D|----------------|----------------|----------------|
A|----------------|----------------|----------------|
E|----------------|----------------|----------------|
|
e|----------------|----------------|----------------|
B|----------------|-----3-(3)-3--3-|-(3)------------|
G|----------------|----------------|----------------|
D|----3--(3)--3s5-|-5--------------|-(5)------------|
A|----3--(3)--3s5-|-5--------------|-(5)------------|
E|-1--------------|----------------|----------------|


   C               C7                                         G
e|---------------|----------------|------------|------------|-----------------|
B|-5-------------|-(5)------------|-(5)--------|-(5)--------|-----------------|
G|---------------|----------------|------------|------------|-----------------|
D|---------------|----------------|------------|------------|-----------------|
A|---------------|----------------|------------|------------|-----------------|
E|---------------|----------------|------------|------------|-----------------|
|
e|---------------|----------------|------------|------------|-3-----3-(3)-----|
B|---------------|----------------|------------|------------|---3-------------|
G|-5---5-(5)---5s|==3----3-(3)----|-(3)--------|-(3)--------|-----0--------0--|
D|---------------|----------------|------------|------------|-----------------|
A|---------------|----------------|------------|------------|-----------------|
E|---------------|----------------|------------|------------|-----------------|


   Dadd11                Em7/B
   Gtr I
e|--5------5-(5)-------|--7------7-(7)--------|
B|-----3---------3-3s5-|-----5---------5-(5)--|
G|-(0)---0---------0---|-(0)---0----------0---|
D|---------------------|----------------------|
A|---------------------|----------------------|
E|---------------------|----------------------|


   Am7/E                Bm/D
e|--8------8-(8)--------|-10------10-(10)------|
B|-----5---------5-(5)--|-----8-----------8-8--|
G|-(0)---0----------0---|-(0)---0-----------0--|
D|----------------------|----------------------|
A|----------------------|----------------------|
E|----------------------|----------------------|


   C                      Dadd4
e|-12------12-(12)------|-14-------14-(14)--------|
B|-----5-----------8-8--|-----10-----------10-10--|
G|-(0)---0-----------0--|-(0)----0-------------0--|
D|----------------------|-------------------------|
A|----------------------|-------------------------|
E|----------------------|-------------------------|


   G
e|-15--------------15-|-15--------|-15--------|-----||
B|-----12-12----12----|-----------|-----------|-----||
G|-(0)-----0----------|-----------|-----------|-----||
D|--------------------|-----------|-----------|-----||
A|--------------------|-----------|-----------|-----||
E|--------------------|-----------|-----------|-----||


   E
e|---------------|---------------------|---------------|----------------|
B|---------------|---------------------|---------------|----------------|
G|----2--2p1---2-|-----1---------------|----2--2p1---2-|-----1-(1)------|
D|----2--2-----2-|-----2--2-(2)------0-|-2--2--2-----2-|-----2-(2)------|
A|---------------|--------2-(2)--0h2---|---------------|----------------|
E|-0---------0---|-(0)-----------------|-0---------0---|-(0)------------|


e|---------------|---------------------|---------------|----------------------||
B|---------------|---------------------|---------------|----------------------||
G|----2--2p1---2-|-----1---------------|----2--2p1---2-|-----1-(1)--(1)-------||
D|----2--2-----2-|-----2--2-(2)------0-|-2--2--2-----2-|-----2-(2)--(2)-------||
A|---------------|--------2-(2)--0h2---|---------------|----------------------||
E|-0---------0---|-(0)-----------------|-0---------0---|-(0)------------0-1-2-||


[Verse 3]
               Gadd11                 G           Gadd11
                                                                  ~
e|-------------3-|-(3)----(3)-3-3-3-|-(3)--3------3-|-(3)-3-(3)-------|
B|-------------1-|-(1)----(1)-0-1-3-|-(3)--3------1-|-(1)-0-(0)-------|
G|----0----(0)-0-|-(0)----(0)-0-0-0-|-(0)--0------0-|-(0)-0-(0)-------|
D|----0----(0)---|------------------|---------------|-------------3---|
A|---------------|------------------|---------------|-----------------|
E|-3--------3----|------------------|--3--------3---|-----------------|


   G         Gadd11                 G7
e|-----------3-|-(3)-3-(3)--------|---------------------------------|
B|-----------3-|-(3)-3-(3)--------|---------------------------------|
G|----0------5-|-(5)-4-(4)--------|-----4p0-(0)-4p0-5p0-4p0-5p0-5p0-|
D|----0--------|------------------|-0h2-----------------------------|
A|-------------|------------------|---------------------------------|
E|-3-------3---|--------------3-3-|---------------------------------|


[Chorus]
                              E
   Gtr II
e|-------------------------||---------------|
B|-------------------------||---------------|
G|-------------------------||---------------|
D|-------------------------||---------------|
A|-------------------------||---------------|
E|-------------------------||---------------|
|
 | Gtr I
e|-------------------------||---------------|
B|-------0-(0)-------------||---------------|
G|-7p0-7-0-(0)-2-(2)s===21-||----2--2p1---2-|
D|-------------------------||----2--2-----2-|
A|-------------------------||---------------|
E|-------------------------||-0---------0---|


e|--------------------------|--------------------|
B|--------------15b17-(15)--|-(15)---------------|
G|--------------------------|--------------------|
D|--------------------------|--------------------|
A|--------------------------|--------------------|
E|--------------------------|--------------------|
|
e|--------------------------|--------------------|
B|--------------------------|--------------------|
G|-----1--------------------|-------2--2p1---2---|
D|-----2--2-(2)-------------|-------2--2-----2---|
A|--------2-(2)-------------|--------------------|
E|-(0)----------------------|---0----------0-----|


e|--15b17-----15-12--------------------|
B|--------------------15pb17r(15)p==12-|
G|-------------------------------------|
D|-------------------------------------|
A|-------------------------------------|
E|-------------------------------------|
|
e|-------------------------------------|
B|-------------------------------------|
G|---1----(1)--------------------------|
D|---2----(2)------------------------0-|
A|-----------------------------0--2----|
E|-------------------------------------|


e|----------------------------|----------------------12------|
B|-15b17-15b17==(15)----------|-(15)r----------15b17---------|
G|----------------------------|------------------------------|
D|----------------------------|------------------------------|
A|----------------------------|------------------------------|
E|----------------------------|------------------------------|
|
e|----------------------------|------------------------------|
B|----------------------------|------------------------------|
G|----------------2---2p1---2-|-------1----------------------|
D|--2-------------2---2-----2-|-------2--2-(2)------------0--|
A|--2-------------------------|----------2-(2)--------0h2----|
E|------------------------0---|---0--------------------------|


e|------------------|--------------------------------------------------------||
B|------------------|--------------------------------------------------------||
G|------------------|--------------------------------------------------------||
D|------------------|--------------------------------------------------------||
A|------------------|--------------------------------------------------------||
E|------------------|--------------------------------------------------------||
|
 | Gtr II
e|-(12)-------------|--------------------------------------------------------||
B|------------------|--------------------------------------------------------||
G|------------------|-----14pb16==(14)r(14)p12-14pb16r(14)p12-14pb16r(14)p12-||
D|------------------|--------------------------------------------------------||
A|------------------|--------------------------------------------------------||
E|------------------|--------------------------------------------------------||
|
 | Gtr I
e|------------------|--------------------------------------------------------||
B|------------------|--------------------------------------------------------||
G|-------2--2p1---2-|------1-------(1)---------(1)---------------------------||
D|---2---2--2-----2-|------2-------(2)---------(2)---------------------------||
A|------------------|--------------------------------------------------------||
E|---0----------0---|-(0)--------------------------------------2s============||


  Piano Solo
   B
e|---------7--------------7-------------(7)--5------|
B|---------9--------------7-------------(7)--5------|
G|---------9--------------8-------------(8)--6------|
D|--------------------------------------------------|
A|--------------------------------------------------|
E|--------------------------------------------------|
|
e|--------------------------------------------------|
B|--------------------------------------------------|
G|-14b16--14pb16r(14)-12-14pb16r(14)p12-----12pb14r=|
D|--------------------------------------14----------|
A|--------------------------------------------------|
E|--------------------------------------------------|
|
e|--------------------------------------------------|
B|--------------------------------------------------|
G|--------------------------------------------------|
D|---------9-----------------------------9----------|
A|--------------------------------------------------|
E|--7-----------------------------7-----------------|


   A                   E
e|--(5)-5-5--5-5-5-4-|-----------------------------------------|
B|--(5)-5-7--5---7-5-|------17----17----17------17----17----17-|
G|--(6)-6-7--6---7-4-|---15-16-15-16-15-16---15-16-15-16-15-16-|
D|-------------------|-----------------------------------------|
A|-------------------|-----------------------------------------|
E|-------------------|-----------------------------------------|
|
e|-------------------|-----------------------------------------|
B|-------------------|-----------------------------------------|
G|-(12)--------------|-----------------------------------------|
D|-------------------|-----------------------------------------|
A|-------------------|-----------------------------------------|
E|-------------------|-----------------------------------------|
|
e|-------------------|-----------------------------------------|
B|-------------------|-----------------------------------------|
G|-------------------|-----------------------------------------|
D|--------7------7---|-----------------------------------------|
A|-------------------|-------7-----------6p5-----7-------------|
E|------5------5-----|-----------------------------------------|


                                         B               A
e|-------------------------------------|-7--7--7---7-5-|--5-5--5---5----|
B|----17----17----17----17-17----------|-7--9--7---7-5-|--5-7--5-5---5--|
G|-15-16-15-16-15-16-15-16-12----------|-8--9--8---8-6-|--6-7--6--------|
D|----------------------------14-12----|---------------|----------------|
A|----------------------------------14-|---------------|----------------|
E|-------------------------------------|---------------|----------------|
|
 | Gtr I
e|-------------------------------------|---------------|----------------|
B|-------------------------------------|---------------|----------------|
G|-------------------------------------|---------------|----------------|
D|-------------------------------------|----9------9---|----7------7----|
A|-----------------7--------------5h=7-|---------------|----------------|
E|-------------------------------------|-7-------7-----|--5------5------|


   E
e|----------------------------|
B|-17---17-----17----17-17----|
G|-12---14--15-16-15-16-14-12-|
D|----------------------------|
A|----------------------------|
E|----------------------------|
|
 |    PM              PM
e|----------------------------|
B|----------------------------|
G|----------------------------|
D|----------------------------|
A|-------7---------------7----|
E|----0---------------0-------|


                                                        B
e|----------------------------------------------------|-7--7--7---7-5-|
B|----17----17------17----17----17-----17-17-17-------|-7--9--7---9-5-|
G|-15-16-15-16---15-16-15-16-15-16--15-16-14-12-------|-8--9--8---9-6-|
D|----------------------------------------------14-12-|---------------|
A|----------------------------------------------------|---------------|
E|----------------------------------------------------|---------------|
|
 |             PM                             PM
e|----------------------------------------------------|---------------|
B|----------------------------------------------------|---------------|
G|----------------------------------------------------|---------------|
D|----------------------------------------------------|----9------9---|
A|-------------------------7---------------------7----|---------------|
E|-------------0------------------------------0-------|---------7-----|


   A              E
e|--5-5--5---5--|----------------------------------------|
B|--5-7--5---7--|----17-17-17----------17-------------17-|
G|--6-7--6---7--|-15-16-16-14-12----15-16-14-12----15-16-|
D|--------------|----------------14-------------14-------|
A|--------------|----------------------------------------|
E|--------------|----------------------------------------|
|
 |                       PM                PM
e|--------------|----------------------------------------|
B|--------------|----------------------------------------|
G|--------------|----------------------------------------|
D|----7------7--|----------------------------------------|
A|--------------|-----------7--------------------7-------|
E|--5------5----|--------0-----------------0-------------|


                                            B                 A
e|----------------------------------------|-7---7---7-----5-|--5-5--5-------||
B|-------------17-------------17----------|-7---9---7-----5-|--5-7--5-------||
G|-14-12----15-16-14-12----15-16-14-12----|-8---9---8-----6-|--6-7--6---6---||
D|-------14-------------14-------------14-|---9---9---9-9---|-------------5-||
A|----------------------------------------|-----------------|---------------||
E|----------------------------------------|-----------------|---------------||
|
|                 PM---------------------------------------------------------||
|----------------------------------------|-----------------|-----------------||
|----------------------------------------|-----------------|-----------------||
|----------------------------------------|-----------------|-----------------||
|----------------------------------------|-----9-------9---|----7------7-----||
|--------7-----7--7-----7-----7--7-----7-|-----------------|-----------------||
|----------------------------------------|-7-7-------7-----|--5------5-------||


  Guitar Solo
   C
   Gtr I
e|---------------------------------------------|
B|-------------11------------------------------|
G|--10b12-(10)----10b12-10b12--(10)-10b12-(10)-|
D|---------------------------------------------|
A|---------------------------------------------|
E|---------------------------------------------|


e|-8-------------------------------------|-8----------------------------10pb11===|
B|-8------------8-11-11b13--(11)-------8-|---11-11b13-11-11pb13===(11)r----------|
G|---10b12-(10)------------------10b12---|---------------------------------------|
D|---------------------------------------|---------------------------------------|
A|---------------------------------------|---------------------------------------|
E|---------------------------------------|---------------------------------------|


                                               Outro Chorus
                                                E
e|-(10)r-10b11-10b11--10b11==(10)--(10)r-0-0-||---------------|
B|---------------------------------------0-0-||---------------|
G|-------------------------------------------||----2--2p1---2-|
D|-------------------------------------------||----2--2-----2-|
A|-------------------------------------------||---------------|
E|-------------------------------------------||-0---------0---|


e|---------------------|---------------|----------------|
B|---------------------|---------------|----------------|
G|-----1---------------|----2--2p1---2-|-----1-(1)------|
D|-----2--2-(2)------0-|-2--2--2-----2-|-----2-(2)------|
A|--------2-(2)--0h2---|---------------|----------------|
E|-(0)-----------------|-0---------0---|-(0)------------|


e|---------------|---------------------|---------------|----------------|
B|---------------|---------------------|---------------|----------------|
G|----2--2p1---2-|-----1---------------|----2--2p1---2-|-----1-(1)------|
D|----2--2-----2-|-----2--2-(2)------0-|-2--2--2-----2-|-----2-(2)------|
A|---------------|--------2-(2)--0h2---|---------------|----------------|
E|-0---------0---|-(0)-----------------|-0---------0---|-(0)------------|


e|---------------|---------------------|---------------|----------------|
B|---------------|---------------------|---------------|----------------|
G|----2--2p1---2-|-----1---------------|----2--2p1---2-|-----1-(1)------|
D|----2--2-----2-|-----2--2-(2)------0-|-2--2--2-----2-|-----2-(2)------|
A|---------------|--------2-(2)--0h2---|---------------|----------------|
E|-0---------0---|-(0)-----------------|-0---------0---|-(0)------------|


e|---------------|---------------------|---------------|---------------------|
B|---------------|---------------------|---------------|---------------------|
G|----2--2p1---2-|-----1---------------|----2--2p1---2-|-----1-(1)-----------|
D|----2--2-----2-|-----2--2-(2)------0-|-2--2--2-----2-|-----2-(2)--------0--|
A|---------------|--------2-(2)--0h2---|---------------|--------------0h2----|
E|-0---------0---|-(0)-----------------|-0---------0---|-(0)-----------------|


e|---------------|----------------|---------------|---------------------|
B|---------------|----------------|---------------|---------------------|
G|----2--2p1---2-|-----1-(1)------|----2--2p1---2-|-----1---------------|
D|-2--2--2-----2-|-----2-(2)------|----2--2-----2-|-----2--2-(2)------0-|
A|---------------|----------------|---------------|--------2-(2)--0h2---|
E|-0---------0---|-(0)------------|-0---------0---|-(0)-----------------|


e|---------------|-----------------|---------------|--------------|
B|---------------|-----------------|---------------|--------------|
G|----2--2p1---2-|--1-(1)----------|----2--2p1---2-|---1-(1)------|
D|-2--2--2-----2-|--2-(2)--------0-|-2--2--2-----2-|---2-(2)------|
A|---------------|-----------0h2---|---------------|--------------|
E|-0---------0---|-----------------|-0---------0---|-0------------|

  Fade Out
   PM                     ~~~~~~
e|--------------|----------------|--------------|
B|--------------|----------------|--------------|
G|--------------|---------0-(0)--|--------------|
D|-----2-----2--|----0-2---------|----2-----0-2-|
A|--------------|----------------|--------------|
E|-0-0-----0----|--0-------------|-0------0-----|

                                             ~~~~
e|-------------------|--------------|-------------|-----------*|
B|-------------------|--------------|-------------|-----------*|
G|--------2pb4-2p0---|--------------|-------------|-----------*|
D|----2------------2-|----2-----0-2-|----2---0-0--|----2------*|
A|-------------------|--------------|-------------|-----------*|
E|--0----------------|-0------0-----|-0-----------|-0---------*|


Tablature Legend
----------------
 h   - hammer-on
 p   - pull-off
 b   - bend
 pb  - pre-bend
 r   - bend release (if no number after the r, then release immediately)
 /\  - slide into or out of (from/to "nowhere")
 s   - legato slide
 S   - shift slide
  - natural harmonic
[n]  - artificial harmonic
n(n) - tapped harmonic
 ~   - vibrato
 tr  - trill
 T   - tap
 TP  - trem. picking
 PM  - palm muting
\n/  - tremolo bar dip; n = amount to dip
 \n  - tremolo bar down
 n/  - tremolo bar up
/n\  - tremolo bar inverted dip
 =   - hold bend; also acts as connecting device for hammers/pulls
 <>  - volume swell (louder/softer)
 x   - on rhythm slash represents muted slash
 o   - on rhythm slash represents single note slash

 Any thanks comment or death threat mail me at jibesh@hotmail.com.
Suggest correction
comments
print report bad tab
5 comments total. Showing first comments.
0 reply
Bixy 134 Jul 17, 2006 03:01 PM

is there any guitar 2

0 reply
Chill Bill 10 Aug 14, 2007 08:52 AM

wtf!!

0 reply
Acoustic87777 10 Dec 29, 2009 11:31 AM

I like the tab personally except for one thing. It's so damn confusing. You have every possible part of the song on here but your verses and choruses run into the other and i tended to get lost. I am a rookie but you could have made this tab much simpler.
But on the material side 5* Good Job :)

guest
You may want to rate the tab now too:
select rating
Wanna post a correction for this tab? Suggest correction