Oops, an error
Loading. Please wait.

You Go Running bass

43 views 1 this week
no commentswrite comment
1 2 3 4 5
3 more votes to show rating
add to favorites
×
Save as Personal and add changes to this tab that will be seen only by you. Learn more ›
×
You can save this tab as Personal to edit and correct it or add notes. All changes will be seen only by you. Learn more »
launch autoscroll
font size
0
reset
guitar tuner
edit
Autoscroll
slow
fast
+/-
esc
set tempo
stop
About this tab version
This version focuses a lot on rhythm timing and spacing. In accordance with the album version of the wonderful song. Was this info helpful? Yes No
Deep Sea Diver - You Go Running
History Speaks Album Version

[Intro]

(REST for first 4 measures)
                                           __
G|---------------------------------|         |
D|-------8---8-----------------6h8-|         |
A|-------------8-------------------|  x3     |
E|-6---------------6---------------|         |
                                             |
                                             |
G|--------------------------------|          |
D|-------8---8--------------------|          |
A|-------------8---------------8--|          |
E|-6---------------6---8---10-----|          |
                                             |
                                             |     x2
G|---------------------------------|         |
D|-------8-------------------------|         |
A|-10-------x-10--10----------8h10-|  x3     |
E|---------------------------------|         |
                                             |
                                             |
G|-------------------------------|           |
D|-------8-----------------------|           |
A|-10--------x-10--10--8---------|           |
E|------------------------10--8--|         __|



[Verse]

"You wore your black shoes..."

G|---------------------------------|---------------------------------|---------------------------------|
D|-------8---8-----------------6h8-|-------8---8---------------------|-------8---8-----------------6h8-|
A|-------------8-------------------|-------------8-------------------|-------------8-------------------|
E|-6---------------6---------------|-6---------------6---------------|-6---------------6---------------| 


G|---------------------------------|
D|-------8---8---------------------|
A|-------------8---------------8---|
E|-6---------------6---8---10------|


G|----------------------------------|-------------------------------|----------------------------------|
D|-------8--------------------------|-------8-----------------------|-------8--------------------------|
A|-10-------x-10---10----------8h10-|-10-------x-10--10--8----------|-10-------x-10---10----------8h10-|
E|----------------------------------|-----------------------10--8---|----------------------------------|


G|-------------------------------|
D|-------8-----------------------|
A|-10-------x-10--10--8----------|
E|-----------------------10--8---|


G|---------------------------------|---------------------------------|---------------------------------|
D|-------8---8-----------------6h8-|-------8---8-----------------8---|-------8---8---------------------|
A|-------------8-------------------|-------------8-------------------|-------------8-------------------|
E|-6---------------6---------------|-6---------------6\--------------|-6---------------6-------3-------| 


G|---------------------------------|
D|-------8---8---------------------|
A|-------------8---------------8---|
E|-6---------------6---8---10------|


G|---------------------------------|--------------------------------|---------------------------------|
D|---------------------------------|--------------------------------|---------------------------------|
A|-10---10--x-10--10---------------|-10---10--x-10--10--------------|-10---10--x-10--10---------------|
E|---------------------------------|--------------------------------|---------------------------------|

  
G|--------------------------------|
D|--------------------------------|
A|-10---10--x-10------8--10p8-----|
E|----------------10-----------10-|


[Pre-Chorus]

"And time lay paralyzed..."

(REST first 4 measures)

G|---------------------------------|---------------------------------|----------------------------------|
D|-----------------8---x---8\------|---------------------------------|----------------------------------|
A|-6---x-6---x-6-------------------|-5---x-5---x-5---8---x---8\------|-------------------------5~s~8----|
E|---------------------------------|---------------------------------|-1-----------5~s~8----------------|


G|--------------------------------|
D|-----------------5~s~7---7s10---|
A|-----8~s~10---------------------|
E|--------------------------------|


[Chorus] (Dope)

"Watch your lips pulse..."

G|---------------------------------|---------------------------------|---------------------------------|
D|-------10----8-------------------|-------5---------8---------------|-------10----8-------------------|
A|-----10----------10--------------|---------------------------------|-----10----------10--------------|
E|-8-------------------8-----------|-3-------------------6-----------|-8-------------------8-----------|


G|---------------------------------|
D|---------------------------------|
A|---------------------------------|
E|-3-------------------------------|


G|---------------------------------|---------------------------------|---------------------------------|
D|-------10----8-------------------|-------5---------8---------------|-------10----8-------------------|
A|-----10----------10--------------|---------------------------------|-----10----------10--------------|
E|-8-------------------8-----------|-3-------------------6-----------|-8-------------------8-----------|


G|---------------------------------|---------------------------------|
D|---------------------------------|-7h8-----7h8-----7h8-----7h8-----|
A|---------------------------------|---------------------------------|
E|-3-------------------------------|---------------------------------|


[Break]

G|---------------------------------|       
D|-------8---8-----------------6h8-|         
A|-------------8-------------------|  x3     
E|-6---------------6---------------|         
                                      
      
G|--------------------------------|          
D|-------8---8--------------------|          
A|-------------8---------------8--|          
E|-6---------------6---8---10-----|          
                                             
 
G|---------------------------------|---------------------------------|---------------------------------|
D|-------8-------------------------|-------8-------------------------|-------8-------------------------|
A|-10-------x-10--10-------8---10--|-10-------x-10--10-------8---10--|-10-------x-10--10---------------|
E|---------------------------------|---------------------------------|-------------------------10---8--|
                                    

G|-------------------------------|
D|-------8-----------------------|
A|-10--------x-10--10--8---------|
E|------------------------10\----|


[Verse]

"You wore you black shoes..."

G|---------------------------------|---------------------------------|---------------------------------|
D|-------8---8-----------------6h8-|-------8---8---------------------|-------8---8-----------------6h8-|
A|-------------8-------------------|-------------8-------------------|-------------8-------------------|
E|-6---------------6---------------|-6---------------6---------------|-6---------------6---------------| 


G|---------------------------------|
D|-------8---8---------------------|
A|-------------8---------------8---|
E|-6---------------6---8---10------|


G|----------------------------------|-------------------------------|----------------------------------|
D|-------8--------------------------|-------8-----------------------|-------8--------------------------|
A|-10-------x-10---10----------8h10-|-10-------x-10--10--8----------|-10-------x-10---10----------8h10-|
E|----------------------------------|-----------------------10--8---|----------------------------------|


G|-------------------------------|
D|-------8-----------------------|
A|-10-------x-10--10--8----------|
E|-----------------------10--8---|


G|---------------------------------|---------------------------------|---------------------------------|
D|-------8---8-----------------6h8-|-------8---8-----------------6h8-|-------8---8---------------------|
A|-------------8-------------------|-------------8-------------------|-------------8-------------------|
E|-6---------------6---------------|-6---------------6---------------|-6---------------6---------------| 


G|---------------------------------|
D|-------8---8---------------------|
A|-------------8---------------8---|
E|-6---------------6---8---10------|


G|---------------------------------|--------------------------------|---------------------------------|
D|---------------------------------|--------------------------------|---------------------------------|
A|-10---10--x-10--10---------------|-10---10--x-10--10--------------|-10---10--x-10--10---------------|
E|---------------------------------|--------------------------------|---------------------------------|


G|--------------------------------|
D|--------------------------------|
A|-10---10--x-10------8--10p8-----|
E|----------------10-----------10-|


[Prechorus]

G|---------------------------------|---------------------------------|---------------------------------|
D|---------------------------------|---------------------------------|---------------------------------|
A|-6-------------------------------|-5---------------8---------------|-6-------------------------------|
E|---------------------------------|---------------------------------|---------------------------------|


G|---------------------------------|
D|---------------------------------|
A|-5---------------8---------------|
E|---------------------------------|


G|---------------------------------|---------------------------------|----------------------------------|
D|-----------------8---x---8\------|---------------------------------|----------------------------------|
A|-6---x-6---x-6-------------------|-5---x-5---x-5---8---x---8\------|-------------------------5~s~8----|
E|---------------------------------|---------------------------------|-1-----------5~s~8----------------|


G|--------------------------------|
D|-----------------5~s~7---7s10---|
A|-----8~s~10---------------------|
E|--------------------------------|


[Chorus]

"Watch your lips pulse..."

G|---------------------------------|---------------------------------|---------------------------------|
D|-------10----8-------------------|-------5---------8---------------|-------10----8-------------------|
A|-----10----------10--------------|---------------------------------|-----10----------10--------------|
E|-8-------------------8-----------|-3-------------------6-----------|-8-------------------8-----------|


G|---------------------------------|
D|---------------------------------|
A|---------------------------------|
E|-3-------------------------------|


G|---------------------------------|---------------------------------|---------------------------------|
D|-------10----8-------------------|-------5---------8---------------|-------10----8-------------------|
A|-----10----------10--------------|---------------------------------|-----10----------10--------------|
E|-8-------------------8-----------|-3-------------------6-----------|-8-------------------8-----------|

 
G|---------------------------------|
D|---------------------------------|
A|---------------------------------|
E|-3\------------------------------|


[Break]

G|---------------------------------|
D|---------------------------------|
A|---------------------------------|  x6
E|-6-------6-------6-------6-------|


[Verse]
 
G|---------------------------------|
D|---------------------------------|
A|-------------8---10--8---10\-----|  x11
E|-6-----6-------------------------|


G|------------------------------------|
D|-----------------------8------------|
A|-------------8---10-10-----10---8---|
E|-6-----6----------------------------|


G|---------------------------------|-------------------------7-------|
D|---------------------------------|-------------8---10\-------------|
A|-------------8---10--8---10\-----|---------10----------------------|  x4
E|-6-----6-------------------------|-6-------------------------------|


[Outro]
 
G|---------------------------------|-------------------------7-------|
D|---------------------------------|-------------8---10\-------------|
A|-------------8---10--8---10\-----|---------10----------------------|  x2
E|-6-----6-------------------------|-6-------------------------------|


G|---------------------------------|---------------------------------|
D|---------------------------------|---------------------------------|
A|---------------------------------|---------------------------------|
E|-6-----6-----6---6---------------|-6-----6-----6---6---------------|


************************************************************************
|    Legend:
|
|  h - Hammeron
|  p - Pickup
|  \ - Slide Down
| \ - Slide Down
|  x - Mute
|
************************************************************************

            
            
Suggest correction
Creating personal tab
Creating personal tab
You can edit any tab online and save it as your Personal.

You can edit, replace or remove any tab part or add personal notes – all changes will be seen only by you.

Personal tabs can be accessed anytime from any device, even offline.
Learn more »
Give kudos to tab author, rate the tab!
1 2 3 4 5
comments
print report bad tab
guest
You may want to rate the tab now too:
select rating
Wanna post a correction for this tab? Suggest correction