Oops, an error
Loading. Please wait.

Ashamed tab

version 1
version 1

Whole song

10,775 views 18 this week
3 commentsread comments
1 2 3 4 5
x 12
add to favorites
×
Save as Personal and add changes to this tab that will be seen only by you. Learn more ›
×
You can save this tab as Personal to edit and correct it or add notes. All changes will be seen only by you. Learn more »
launch autoscroll
font size
0
reset
how to read this tab
guitar tuner
edit
Autoscroll
slow
fast
+/-
esc
set tempo
stop
Difficulty
This is really easy and correct for at least the intro and pretty much the whole song, 
however at some point I'm sure he does something a little different.  Let me know and 
I'll fix whatever.

e|-----------0----------0-------|
B|---1---------1----------1-----|
G|---------0----------0---------|
D|-----0h2--------0h2-----------|
A|-3----------------------------|
E|------------------------------|

e|-----------0---------0---------|
B|---1---------1---------1-------|
G|---------0---------0-----------|
D|-2---0h2-------0h2-------------|
A|-------------------------------|
E|-------------------------------|

            
            
Suggest correction
Creating personal tab
Creating personal tab
You can edit any tab online and save it as your Personal.

You can edit, replace or remove any tab part or add personal notes – all changes will be seen only by you.

Personal tabs can be accessed anytime from any device, even offline.
Learn more »
comments
print report bad tab
3 comments total.
0 reply
agile2011 10 Oct 16, 2013 07:43 AM

theres an F and a G in there

0 reply
winniethepooh 83 Jan 02, 2014 03:05 PM

wow thanks, not perfect but was enough for me to learn the song from thanks! one thing you should add is that 3 (C note) on the A string that's played everytime :)

e|-----------0--------------0----------|
B|---1------------1---------------1----|
G|---------0-------------0-------------|
D|-----0h2-----------0h2---------------|
A|-3-----------3---------------3-------|
E|-------------------------------------|

0 reply
brondonbeeonko 32 Jul 29, 2015 06:43 PM

Lack of accuracy. Tab incomplete. Missing bass notes on the 3rd beat as mentioned in comments, missing transition notes at the end of each chord phrase, missing third chord change to F

guest
Wanna post a correction for this tab? Suggest correction