Oops, an error
Loading. Please wait.

Baltimore Blues No 1 tab

version 1
version 1

Whole song

Interactive

54,746 views 129 this week
1 commentread comment
1 2 3 4 5
x 10
add to favorites
×
Save as Personal and add changes to this tab that will be seen only by you. Learn more ›
×
You can save this tab as Personal to edit and correct it or add notes. All changes will be seen only by you. Learn more »
launch autoscroll
font size
0
reset
how to read this tab
guitar tuner
edit
Autoscroll
slow
fast
+/-
esc
set tempo
stop
Author
Difficulty
Unregistered
-------------------------------------------------------------------------------
                    Baltimore Blues No. 1 - Deer Tick
-------------------------------------------------------------------------------
Tabbed by: Checkeroo

Tuning: Standard

Dm      XX0231
F       133211
Gm      355333
Bb      X13331
C       X32010
Am      X02210
A7      X02020

[Verse]
|  Dm  |  F  |  Gm  |  Bb  |   
Kiss all ...
|  Dm  |  F  |  Gm  |  Bb  |   
Offer them up ...
etc.

Main Riff:
  Dm         F            Gm          Bb
e|-0h1------|-1-------1--|----6---0--|---1---0--|
B|-----3----|-----1------|------3----|-----1----|
G|-------2--|-------2----|-----------|----------|
D|-0--------|---3--------|-/5--------|----------|
A|----------|------------|-----------|-1--------|
E|----------|------------|-----------|----------|

Fill:
"No doubt, I'd sell you all out," etc.
  Dm         F            Gm          Bb
e|-----10---|-8----------|----6---0--|---1---0--|
B|-----10---|---10-------|------3----|-----1----|
G|-----10---|------------|-----------|----------|
D|-0---12---|---------3--|-3h5-------|----------|
A|----------|------------|-----------|-1--------|
E|----------|------------|-----------|----------|

[Chorus]
|  Dm  |  C  |  Bb  |  F  |
I set out ...
|  Am  |     |  Gm  |     |
And out there ...
|  Dm  |  C  |  Bb  |  F  |
But listen Jack ...
|  Am  |     |  A7  |     |
At least now ...



************************************

| h  Hammer-on
| /  Slide up

************************************

            
            
Suggest correction
Creating personal tab
Creating personal tab
You can edit any tab online and save it as your Personal.

You can edit, replace or remove any tab part or add personal notes – all changes will be seen only by you.

Personal tabs can be accessed anytime from any device, even offline.
Learn more »
comments
print report bad tab
1 comment total.
+2 reply
wraphesh 102 Dec 27, 2011 08:31 PM

Pretty good tab overall. Actually both tabs of this song are correct in their own ways. He capos the 5th fret and plays it like this

|---------------------|-------------|-----1--------|--------------|
|-------0h1--------1--|----------1--|--------------|-----1--------|
|------------2--------|----2--------|--------2--0--|--------0--2--|
|---------------2-----|-------0-----|--0-----------|--------------|
|---------0-----------|--3----------|--------------|--------------|
|--0h3----------------|-------------|--------------|--1-----------|

guest
Wanna post a correction for this tab? Suggest correction