Oops, an error
Loading. Please wait.

Vox Celeste Bass Tab

388 views 1 this week
no commentswrite comment
1 2 3 4 5
3 more votes to show rating
add to favorites
launch autoscroll
font size
0
reset
guitar tuner
Autoscroll
slow
fast
+/-
esc
set tempo
stop
Help us to improve Ultimate-Guitar.com Take our survey!
×
Author
Difficulty
novice
-----------------------------------------------------------------
Vox Celeste - Deerhunter
-----------------------------------------------------------------
Tabbed By: Madrone6
e-mail: je.mathnerd15@gmail.com
Tuning: Standard

Intro: (repeat until verse)

G|11-11-11-11-11-11-11-11-|
D|-0--0--0--0--0--0--0--0-|
A|------------------------|
E|------------------------|

Verse: (x4)

G|11-11-11-11-9-9-9-7-|7-7-7-7-7-7-7-7-|--------------------|
D|-0--0--0--0-0-0-0-0-|0-0-0-0-0-0-0-0-|--------------------|
A|--------------------|----------------|10-10-10-10-9-9-9-9-|
E|--------------------|----------------|--------------------|

G|----------------|
D|----------------|
A|----------------|
E|7-7-7-7-7-9-5-5-|

Chorus: (x1)

G|----------------|----------------|----------------|----------------|
D|----------------|----------------|----------------|----------------|
A|----------------|----------------|5-5-5-5-5-5-5-5-|5-5-5-5-5-5-5-5-|
E|3-3-3-3-3-3-3-3-|3-3-3-3-3-3-3-3-|----------------|----------------|

G|----------------|----------------|----------------|6-6-6-6---------|
D|----------------|----------------|--------4-4-4-4-|--------2-2-2-2-|
A|----------------|----------------|5-5-5-5---------|----------------|
E|3-3-3-3-3-3-3-3-|3-3-3-3-3-3-3-3-|----------------|----------------|

Break: Intro (x8)

Verse: (x4)

Chorus: (x1)

Bridge: (x8)

G|7---7---7---7---|
D|----------------|
A|--5---5---5---5-|
E|----------------|

Chorus: (x1)

Verse: (x8)

Outro: Intro (fade out)



| /  slide up
| \  slide down
| h  hammer-on
| p  pull-off
| ~  vibrato
| +  harmonic
| x  Mute note
Suggest correction
Give kudos to tab author, rate the tab!
1 2 3 4 5
comments
print report bad tab
guest
You may want to rate the tab now too:
select rating
Wanna post a correction for this tab? Suggest correction