Oops, an error
Loading. Please wait.
We have an official Bringin On The Heartbreak tab made by UG professional guitarists. Check out the tab »
×
6,034 views 3 this week
2 commentsread comments
1 2 3 4 5
x 6
add to favorites
×
Save as Personal and add changes to this tab that will be seen only by you. Learn more ›
×
You can save this tab as Personal to edit and correct it or add notes. All changes will be seen only by you. Learn more »
launch autoscroll
font size
0
reset
guitar tuner
edit
Autoscroll
slow
fast
+/-
esc
set tempo
stop
Author
Difficulty
INTRO

G|--------------|--------------|---------------|--------------|
D|--------------|--------------|---------------|--------------|
A|--------------|--------------|--3----0-3--3--|--5-----5-6-7-|
E|-5----0-5--5--|-1----0-1--1--|---------------|--------------|

G|------|------|------|--------|---------|---------|-----------19--16\-|
D|------|------|------|--------|---------|---------|-------------------|
A|------|------|------|--------|---------|---------|-------------------|
E|-5----|-5----|-5----|-3----3-|-1-------|-0-1--1--|-7\---1/-----------|


VERSE

Gypsy    sitting...

G|------|------|------|--------|---------|---------|-------|------|
D|------|------|------|--------|---------|---------|-------|------|
A|------|------|------|--------|---------|---------|-2---2-|------|
E|-5----|-5----|-5----|-3----3-|-1-------|-0-1--1--|-------|-0----|  x3


PRECHORUS

I'm sorry but it's true, you're bringin on...

G|------|------|------|------|
D|------|------|------|------|
A|-3----|------|-5----|-2----|
E|------|-3----|------|------|

best of me.  Oh can't you see...

G|------------------------------|
D|------------------------------|
A|-3----------------------------|
E|------3---3-3-3---3-3-3---3-3-| x4


CHORUS

You're bringin on the heartbreak....

G|------|------|-----------------------------|
D|------|------|-----------------------------|
A|------|------|-----------------------------|
E|-5----|-1----|-3---3-3-3---3-3-3---3-3-3---| x4


VERSE
PRECHORUS
CHORUS


SOLO

G|-----|---------|--------|----------|---------------|--------|
D|-----|---------|--------|----------|---------------|--------|
A|-----|---------|--------|----------|---3---3-------|--------|
E|-5---|-5-1--1--|-1-3----|3-0--0----|-0---------5-5-|-5-3----|

G|---------------------------------------------|
D|---------------------------------------------|
A|-----------|---3---3-------|---5-5-----------|
E|-3-1--1----|-1---------3-3-|-3-------0-0---0-|


PRECHORUS (but only the second part "you got the best of me...")
CHORUS (to out)

            
            
Suggest correction
Creating personal tab
Creating personal tab
You can edit any tab online and save it as your Personal.

You can edit, replace or remove any tab part or add personal notes – all changes will be seen only by you.

Personal tabs can be accessed anytime from any device, even offline.
Learn more »
comments
print report bad tab
2 comments total.
+1 reply
RataBlanca 92 Jul 23, 2008 09:47 PM

Sorry, the end of the verse riff should go

G|-------|------|
D|-----2-|------|
A|-2-----|------|
E|-------|-0----|

0 reply
i_am_metalhead 120 Sep 14, 2009 11:46 PM

Great tab. However, like Rata said, it goes from the its not 2 "B"s at the end of that riff, its a B then an E then the open E.

Other than that everything seems perfect!

guest
You may want to rate the tab now too:
select rating
Wanna post a correction for this tab? Suggest correction