Oops, an error
Loading. Please wait.
We have an official Foolin tab made by UG professional guitarists. Check out the tab »
×
256 views 3 this week
no commentswrite comment
1 2 3 4 5
2 more votes to show rating
add to favorites
×
Save as Personal and add changes to this tab that will be seen only by you. Learn more ›
×
You can save this tab as Personal to edit and correct it or add notes. All changes will be seen only by you. Learn more »
launch autoscroll
font size
0
reset
how to read this tab
guitar tuner
backing track
0:00
0:00
edit
Autoscroll
slow
fast
+/-
esc
set tempo
stop
Author
Difficulty
I have been noticing major errors in all the other versions of this tab.
Most of them are in the Chorus, Prechorus A and B, or the Solo, and a
few of them have problems with the formatting. This version is the closest
to perfect you can get without transcribing out of a book. Although there
are already several other versions, this one is better than the rest
which is why I am submitting it. Thank you.


Intro/Verse
  Play for entire intro 4x
  Guitar 1 (Clean)                    
e|--------------------------------|--------------------0-----------|
B|------------0-------------------|--------0-------------------0---|
G|--------2-----------------------|----4-------5-----------5-------|
D|----2---------------2-------3---|------------3-------------------|
A|0-----------------------0-------|--------------------------------|
E|--------------------------------|--------------------------------|
 |
 |Guitar 2
e|--------------------------------|--------------------------------|
B|--------------------------------|--------------------------------|
G|--------------------------------|--------------------------------|
D|--------------------------------|--------------------------------|
A|--------------------------------|--------------------------------|
E|--------------------------------|--------------------------------|

  Guitar 1
e|--------------------------------|--------------------0-----------|
B|------------0-------------------|--------0---------------0-------|
G|--------2-----------------------|----4-------5---------------5---|
D|----2---------------2-------3---|------------3-------------------|
A|0-----------------------0-------|--------------------------------|
E|--------------------------------|--------------------------------|
 |
 |Guitar 2
e|--------------------------------|--------------------------------|
B|--------------------------------|--------------------------------|
G|--------------------------------|--------------------------------|
D|--------------------------------|--------------------------------|
A|--------------------------------|--------------------------------|
E|--------------------------------|--------------------------------|

                                   Guitar 2 (Overdriven)
                                 e|--------------------------------|
                                 B|--------------------------------|
              Last measure play  G|--------------------------------|
              this instead       D|3---3---3---3---3---3---3---3---|
                                 A|3---3---3---3---3---3---3---3---|
                                 E|1---1---1---1---1---1---1---1---|


  Pre-Chorus A

  Guitar 1 (Overdriven)
e|--------------------------------|--------------------------------|
B|--------------------------------|--------------------------------|
G|2-----------2-----------2-------|----2-----------5-------0-------|
D|2-----------2-----------2-------|----2-----------5-------0-------|
A|0---0---0---0---0---0---0---0---|0---0---0---0-------------------|
E|--------------------------------|--------------------------------|
 |
 |Guitar 2
e|--------------------------------|--------------------------------|
B|--------------------------------|--------------------------------|
G|2-----------2-----------2-------|----2-----------5---------------|
D|2-----------2-----------2-------|----2-----------5-------5-------|
A|0---0---0---0---0---0---0---0---|0---0---0---0---3-------5-------|
E|--------------------------------|------------------------3-------|

  Guitar 1
e|--------------------------------|--------------------------------|
B|--------------------------------|--------------------------------|
G|2-----------2-----------2-------|----2-----------7---\---5-------|
D|2-----------2-----------2-------|----2-----------5---\---3-------|
A|0---0---0---0---0---0---0---0---|0---0---0---0-------------------|
E|--------------------------------|--------------------------------|
 |
 |Guitar 2
e|--------------------------------|--------------------------------|
B|--------------------------------|--------------------------------|
G|2-----------2-----------2-------|----2---------------------------|
D|2-----------2-----------2-------|----2-----------5---\---3-------|
A|0---0---0---0---0---0---0---0---|0---0---0---0---5---\---3-------|
E|--------------------------------|----------------3---\---1-------|

  Guitar 1
e|--------------------------------|--------------------------------|
B|--------------------------------|--------------------------------|
G|2-----------4-----------4-------|----5-----------5-------0-------|
D|2-----------2-----------3-------|----3-----------5-------0-------|
A|0---0---0---0---0---0---0---0---|0---0---0---0-------------------|
E|--------------------------------|--------------------------------|
 |
 |Guitar 2
e|--------------------------------|--------------------------------|
B|--------------------------------|--------------------------------|
G|2-----------4-----------4-------|----5-----------5---------------|
D|2-----------2-----------3-------|----3-----------5-------5-------|
A|0---0---0---0---0---0---0---0---|0---0---0---0---3-------5-------|
E|--------------------------------|------------------------3-------|

  Guitar 1
e|--------------------------------|--------------------------------|
B|------------5-----------6-------|----8---------------------------|
G|2-----------4-----------5-------|----7-------------------2-------|
D|2-----------2-----------3-------|----5-------------------2-------|
A|0-----------2-----------3-------|----5-------------------0-------|
E|--------------------------------|----------------3b--------------|
 |
 |Guitar 2
e|--------------------------------|--------------------------------|
B|------------5-----------6-------|----8---------------------------|
G|2-----------4-----------5-------|----7-------------------2-------|
D|2-----------2-----------3-------|----5-------------------2-------|
A|0-----------2-----------3-------|----5-------------------0-------|
E|--------------------------------|----------------3b--------------|


  Pre-Chorus B
  Guitar 1 (Clean)
e|--------------------------------|--------------------------------|
B|--------------------------------|--------------------------------|
G|----3-----------2---------------|----3-----------2---------------|
D|--------3-----------3-------3---|--------3-----------3-------3---|
A|1-----------1-----------1-------|1-----------1-----------1-------|
E|--------------------------------|--------------------------------|
 |
 |Guitar 2
e|--------------------------------|--------------------------------|
B|--------------------------------|--------------------------------|
G|3~~~~~~~~~~~~~~~~~~~~~~~~~~~~~~~|~~~~~~~~~~~~~~~~~~~~~~~~~~~~~~~~|
D|4~~~~~~~~~~~~~~~~~~~~~~~~~~~~~~~|~~~~~~~~~~~~~~~~~~~~~~~~~~~~~~~~|
A|1~~~~~~~~~~~~~~~~~~~~~~~~~~~~~~~|~~~~~~~~~~~~~~~~~~~~~~~~~~~~~~~~|
E|--------------------------------|--------------------------------|

  Guitar 1
e|--------------------------------|--------------------------------|
B|--------------------------------|--------------------------------|
G|----5-----------4---------------|----5-----------4---------------|
D|--------5-----------5-------5---|--------5-----------5-------5---|
A|3-----------3-----------3-------|3-----------3-----------3-------|
E|--------------------------------|--------------------------------|
 |
 |Guitar 2
e|--------------------------------|--------------------------------|
B|--------------------------------|--------------------------------|
G|5~~~~~~~~~~~~~~~~~~~~~~~~~~~~~~~|~~~~~~~~~~~~~~~~~~~~~~~~~~~~~~~~|
D|6~~~~~~~~~~~~~~~~~~~~~~~~~~~~~~~|~~~~~~~~~~~~~~~~~~~~~~~~~~~~~~~~|
A|3~~~~~~~~~~~~~~~~~~~~~~~~~~~~~~~|~~~~~~~~~~~~~~~~~~~~~~~~~~~~~~~~|
E|--------------------------------|--------------------------------|

  Guitar 1
e|--------------------------------|--------------------------------|
B|--------------------------------|--------------------------------|
G|----3-----------2---------------|----3-----------2---------------|
D|--------3-----------3-------3---|--------3-----------3-------3---|
A|1-----------1-----------1-------|1-----------1-----------1-------|
E|--------------------------------|--------------------------------|
 |
 |Guitar 2
e|--------------------------------|--------------------------------|
B|--------------------------------|--------------------------------|
G|7~~~~~~~~~~~~~~~~~~~~~~~~~~~~~~~|~~~~~~~~~~~~~~~~~~~~~~~~~~~~~~~~|
D|8~~~~~~~~~~~~~~~~~~~~~~~~~~~~~~~|~~~~~~~~~~~~~~~~~~~~~~~~~~~~~~~~|
A|5~~~~~~~~~~~~~~~~~~~~~~~~~~~~~~~|~~~~~~~~~~~~~~~~~~~~~~~~~~~~~~~~|
E|--------------------------------|--------------------------------|

  Guitar 1
e|--------------------------------|--------------------------------|
B|--------------------------------|--------------------------------|
G|----5-----------4---------------|5---5---5---5---5---5---5---5---|
D|--------5-----------5-------5---|5---5---5---5---5---5---5---5---|
A|3-----------3-----------3-------|3---3---3---3---3---3---3---3---|
E|--------------------------------|--------------------------------|
 |
 |Guitar 2
e|--------------------------------|--------------------------------|
B|--------------------------------|--------------------------------|
G|9~~~~~~~~~~~~~~~~~~~~~~~~~~~~~~~|5---5---5---5---5---5---5---5---|
D|10~~~~~~~~~~~~~~~~~~~~~~~~~~~~~~|5---5---5---5---5---5---5---5---|
A|7~~~~~~~~~~~~~~~~~~~~~~~~~~~~~~~|3---3---3---3---3---3---3---3---|
E|--------------------------------|--------------------------------|


  Chorus
  Guitar 1 (Overdriven)
e|--------------------------------|--------------------------------|
B|--------------------------------|--------------------------------|
G|7---5---7-----------------------|--------------------3-----------|
D|7---5---7-----------------------|------------3-------3-----------|
A|5---3---5-----------------------|------------3-------1-----------|
E|--------------------------------|------------1-------------------|
 |
 |Guitar 2
e|--------------------------------|--------------------------------|
B|--------------------------------|--------------------------------|
G|7---5---7-----------------------|--------------------3-----------|
D|7---5---7-----------------------|------------3-------3-----------|
A|5---3---5---5---5---5---5---5---|5---5---5---3-------1-----------|
E|--------------------------------|------------1-------------------|

  Guitar 1
e|--------------------------------|--------------------------------|
B|--------------------------------|--------------------------------|
G|7---5---7-----------------------|--------------------------------|
D|7---5---7-----------------------|------------3-------5-----------|
A|5---3---5-----------------------|------------3-------5-----------|
E|--------------------------------|------------1-------3-----------|
 |
 |Guitar 2
e|--------------------------------|--------------------------------|
B|--------------------------------|--------------------------------|
G|7---5---7-----------------------|--------------------------------|
D|7---5---7-----------------------|------------3-------5-----------|
A|5---3---5---5---5---5---5---5---|5---5---5---3-------5-----------|
E|--------------------------------|------------1-------3-----------|

  Guitar 1
e|--------------------------------|--------------------------------|
B|--------------------------------|--------------------------------|
G|7---5---7-----------------------|--------------------3-----------|
D|7---5---7-----------------------|------------3-------3-----------|
A|5---3---5-----------------------|------------3-------1-----------|
E|--------------------------------|------------1-------------------|
 |
 |Guitar 2
e|--------------------------------|--------------------------------|
B|--------------------------------|--------------------------------|
G|7---5---7-----------------------|--------------------3-----------|
D|7---5---7-----------------------|------------3-------3-----------|
A|5---3---5---5---5---5---5---5---|5---5---5---3-------1-----------|
E|--------------------------------|------------1-------------------|

  Guitar 1
e|--------------------------------|--------------------------------|
B|--------------------------------|--------------------------------|
G|7---5---7-----------------------|--------------------------------|
D|7---5---7-----------------------|------------3-------5-----------|
A|5---3---5-----------------------|------------3-------5-----------|
E|--------------------------------|------------1-------3-----------|
 |
 |Guitar 2
e|--------------------------------|--------------------------------|
B|--------------------------------|--------------------------------|
G|7---5---7-----------------------|----------------------------7-7-|
D|7---5---7-----------------------|------------3-------5-------7-7-|
A|5---3---5---5---5---5---5---5---|5---5---5---3-------5-------5-5-|
E|--------------------------------|------------1-------3-----------|

  Guitar 1 (Clean)
e|----------------0---------------|----------------0---------------|
B|--------------------0-----------|--------------------0-----------|
G|--------5---------------5-------|--------5---------------5-------|
D|----7-------7---------------7---|----7-------7---------------7---|
A|5-------------------------------|5-------------------------------|
E|--------------------------------|--------------------------------|
 |
 | Guitar 2
e|--------------------------------|--------------------------------|
B|--------------------------------|--------------------------------|
G|7-------------------------------|--------------------------------|
D|7-------------------------------|--------------------------------|
A|5-------------------------------|--------------------------------|
E|--------------------------------|--------------------------------|


Verse

  Guitar 1                            Play for entire verse 4x
e|--------------------------------|--------------------0-----------|
B|------------0-------------------|--------0-------------------0---|
G|--------2-----------------------|----4-------5-----------5-------|
D|----2---------------2-------3---|------------3-------------------|
A|0-----------------------0-------|--------------------------------|
E|--------------------------------|--------------------------------|
 |
 |Guitar 2
e|--------------------------------|--------------------------------|
B|--------------------------------|--------------------------------|
G|--------------------------------|--------------------------------|
D|--------------------------------|--------------------------------|
A|--------------------------------|--------------------------------|
E|--------------------------------|--------------------------------|

  Guitar 1
e|--------------------------------|--------------------0-----------|
B|------------0-------------------|--------0---------------0-------|
G|--------2-----------------------|----4-------5---------------5---|
D|----2---------------2-------3---|------------3-------------------|
A|0-----------------------0-------|--------------------------------|
E|--------------------------------|--------------------------------|
 |
 |Guitar 2
e|--------------------------------|--------------------------------|
B|--------------------------------|--------------------------------|
G|--------------------------------|--------------------------------|
D|--------------------------------|--------------------------------|
A|--------------------------------|--------------------------------|
E|--------------------------------|--------------------------------|

                                   Guitar 2
                                 e|--------------------------------|
                                 B|--------------------------------|
              Last measure play  G|--------------------------------|
              this instead       D|3---3---3---3---3---3---3---3---|
                                 A|3---3---3---3---3---3---3---3---|
                                 E|1---1---1---1---1---1---1---1---|


  Pre-Chorus A

  Guitar 1
e|--------------------------------|--------------------------------|
B|--------------------------------|--------------------------------|
G|2-----------2-----------2-------|----2-----------5-------0-------|
D|2-----------2-----------2-------|----2-----------5-------0-------|
A|0---0---0---0---0---0---0---0---|0---0---0---0-------------------|
E|--------------------------------|--------------------------------|
 |
 |Guitar 2
e|--------------------------------|--------------------------------|
B|--------------------------------|--------------------------------|
G|2-----------2-----------2-------|----2-----------5---------------|
D|2-----------2-----------2-------|----2-----------5-------5-------|
A|0---0---0---0---0---0---0---0---|0---0---0---0---3-------5-------|
E|--------------------------------|------------------------3-------|

  Guitar 1
e|--------------------------------|--------------------------------|
B|--------------------------------|--------------------------------|
G|2-----------2-----------2-------|----2-----------7---\---5-------|
D|2-----------2-----------2-------|----2-----------5---\---3-------|
A|0---0---0---0---0---0---0---0---|0---0---0---0-------------------|
E|--------------------------------|--------------------------------|
 |
 |Guitar 2
e|--------------------------------|--------------------------------|
B|--------------------------------|--------------------------------|
G|2-----------2-----------2-------|----2---------------------------|
D|2-----------2-----------2-------|----2-----------5---\---5-------|
A|0---0---0---0---0---0---0---0---|0---0---0---0---5---\---5-------|
E|--------------------------------|----------------3---\---3-------|

  Guitar 1
e|--------------------------------|--------------------------------|
B|--------------------------------|--------------------------------|
G|2-----------4-----------4-------|----5-----------5-------0-------|
D|2-----------2-----------3-------|----3-----------5-------0-------|
A|0---0---0---0---0---0---0---0---|0---0---0---0-------------------|
E|--------------------------------|--------------------------------|
 |
 |Guitar 2
e|--------------------------------|--------------------------------|
B|--------------------------------|--------------------------------|
G|2-----------4-----------4-------|----4-----------5---------------|
D|2-----------2-----------3-------|----3-----------5-------5-------|
A|0---0---0---0---0---0---0---0---|0---0---0---0---3-------5-------|
E|--------------------------------|------------------------3-------|

  Guitar 1
e|--------------------------------|--------------------------------|
B|------------5-----------6-------|----8---------------------------|
G|2-----------4-----------5-------|----7-------------------2-------|
D|2-----------2-----------3-------|----5-------------------2-------|
A|0-----------2-----------3-------|----5-------------------0-------|
E|--------------------------------|----------------3b--------------|
 |
 |Guitar 2
e|--------------------------------|--------------------------------|
B|------------5-----------6-------|----8---------------------------|
G|2-----------4-----------5-------|----7-------------------2-------|
D|2-----------2-----------3-------|----5-------------------2-------|
A|0-----------2-----------3-------|----5-------------------0-------|
E|--------------------------------|----------------3b--------------|


  Pre-Chorus B
  Guitar 1 (Clean)
e|--------------------------------|--------------------------------|
B|--------------------------------|--------------------------------|
G|----3-----------2---------------|----3-----------2---------------|
D|--------3-----------3-------3---|--------3-----------3-------3---|
A|1-----------1-----------1-------|1-----------1-----------1-------|
E|--------------------------------|--------------------------------|
 |
 |Guitar 2
e|--------------------------------|--------------------------------|
B|--------------------------------|--------------------------------|
G|3~~~~~~~~~~~~~~~~~~~~~~~~~~~~~~~|~~~~~~~~~~~~~~~~~~~~~~~~~~~~~~~~|
D|4~~~~~~~~~~~~~~~~~~~~~~~~~~~~~~~|~~~~~~~~~~~~~~~~~~~~~~~~~~~~~~~~|
A|1~~~~~~~~~~~~~~~~~~~~~~~~~~~~~~~|~~~~~~~~~~~~~~~~~~~~~~~~~~~~~~~~|
E|--------------------------------|--------------------------------|

  Guitar 1
e|--------------------------------|--------------------------------|
B|--------------------------------|--------------------------------|
G|----5-----------4---------------|----5-----------4---------------|
D|--------5-----------5-------5---|--------5-----------5-------5---|
A|3-----------3-----------3-------|3-----------3-----------3-------|
E|--------------------------------|--------------------------------|
 |
 |Guitar 2
e|--------------------------------|--------------------------------|
B|--------------------------------|--------------------------------|
G|5~~~~~~~~~~~~~~~~~~~~~~~~~~~~~~~|~~~~~~~~~~~~~~~~~~~~~~~~~~~~~~~~|
D|6~~~~~~~~~~~~~~~~~~~~~~~~~~~~~~~|~~~~~~~~~~~~~~~~~~~~~~~~~~~~~~~~|
A|3~~~~~~~~~~~~~~~~~~~~~~~~~~~~~~~|~~~~~~~~~~~~~~~~~~~~~~~~~~~~~~~~|
E|--------------------------------|--------------------------------|

  Guitar 1
e|--------------------------------|--------------------------------|
B|--------------------------------|--------------------------------|
G|----3-----------2---------------|----3-----------2---------------|
D|--------3-----------3-------3---|--------3-----------3-------3---|
A|1-----------1-----------1-------|1-----------1-----------1-------|
E|--------------------------------|--------------------------------|
 |
 |Guitar 2
e|--------------------------------|--------------------------------|
B|--------------------------------|--------------------------------|
G|7~~~~~~~~~~~~~~~~~~~~~~~~~~~~~~~|~~~~~~~~~~~~~~~~~~~~~~~~~~~~~~~~|
D|8~~~~~~~~~~~~~~~~~~~~~~~~~~~~~~~|~~~~~~~~~~~~~~~~~~~~~~~~~~~~~~~~|
A|5~~~~~~~~~~~~~~~~~~~~~~~~~~~~~~~|~~~~~~~~~~~~~~~~~~~~~~~~~~~~~~~~|
E|--------------------------------|--------------------------------|

  Guitar 1
e|--------------------------------|--------------------------------|
B|--------------------------------|--------------------------------|
G|----5-----------4---------------|5---5---5---5---5---5---5---5---|
D|--------5-----------5-------5---|5---5---5---5---5---5---5---5---|
A|3-----------3-----------3-------|3---3---3---3---3---3---3---3---|
E|--------------------------------|--------------------------------|
 |
 |Guitar 2
e|--------------------------------|--------------------------------|
B|--------------------------------|--------------------------------|
G|9~~~~~~~~~~~~~~~~~~~~~~~~~~~~~~~|5---5---5---5---5---5---5---5---|
D|10~~~~~~~~~~~~~~~~~~~~~~~~~~~~~~|5---5---5---5---5---5---5---5---|
A|7~~~~~~~~~~~~~~~~~~~~~~~~~~~~~~~|3---3---3---3---3---3---3---3---|
E|--------------------------------|--------------------------------|


  Chorus
  Guitar 1 (Overdriven)
e|--------------------------------|--------------------------------|
B|--------------------------------|--------------------------------|
G|7---5---7-----------------------|--------------------3-----------|
D|7---5---7-----------------------|------------3-------3-----------|
A|5---3---5-----------------------|------------3-------1-----------|
E|--------------------------------|------------1-------------------|
 |
 |Guitar 2
e|--------------------------------|--------------------------------|
B|--------------------------------|--------------------------------|
G|7---5---7-----------------------|--------------------3-----------|
D|7---5---7-----------------------|------------3-------3-----------|
A|5---3---5---5---5---5---5---5---|5---5---5---3-------1-----------|
E|--------------------------------|------------1-------------------|

  Guitar 1
e|--------------------------------|--------------------------------|
B|--------------------------------|--------------------------------|
G|7---5---7-----------------------|--------------------------------|
D|7---5---7-----------------------|------------3-------5-----------|
A|5---3---5-----------------------|------------3-------5-----------|
E|--------------------------------|------------1-------3-----------|
 |
 |Guitar 2
e|--------------------------------|--------------------------------|
B|--------------------------------|--------------------------------|
G|7---5---7-----------------------|--------------------------------|
D|7---5---7-----------------------|------------3-------5-----------|
A|5---3---5---5---5---5---5---5---|5---5---5---3-------5-----------|
E|--------------------------------|------------1-------3-----------|

  Guitar 1
e|--------------------------------|--------------------------------|
B|--------------------------------|--------------------------------|
G|7---5---7-----------------------|--------------------3-----------|
D|7---5---7-----------------------|------------3-------3-----------|
A|5---3---5-----------------------|------------3-------1-----------|
E|--------------------------------|------------1-------------------|
 |
 |Guitar 2
e|--------------------------------|--------------------------------|
B|--------------------------------|--------------------------------|
G|7---5---7-----------------------|--------------------3-----------|
D|7---5---7-----------------------|------------3-------3-----------|
A|5---3---5---5---5---5---5---5---|5---5---5---3-------1-----------|
E|--------------------------------|------------1-------------------|

  Guitar 1
e|--------------------------------|--------------------------------|
B|--------------------------------|--------------------------------|
G|7---5---7-----------------------|--------------------------------|
D|7---5---7-----------------------|------------3-------5-----------|
A|5---3---5-----------------------|------------3-------5-----------|
E|--------------------------------|------------1-------3-----------|
 |
 |Guitar 2
e|--------------------------------|--------------------------------|
B|--------------------------------|--------------------------------|
G|7---5---7-----------------------|--------------------------------|
D|7---5---7-----------------------|------------3-------5-----------|
A|5---3---5---5---5---5---5---5---|5---5---5---3-------5-----------|
E|--------------------------------|------------1-------3-----------|


  Solo
  Guitar 1
e|--------------------------------|--------------------------------|
B|--------------------------------|--------------------------------|
G|7---5---7-----------------------|--------------------3-----------|
D|7---5---7-----------------------|------------3-------3-----------|
A|5---3---5-----------------------|------------3-------1-----------|
E|--------------------------------|------------1-------------------|
 |
 |Guitar 2 (Distorted)
e|--------------------------------|--------------------------------|
B|--------------------------------|--------------------------------|
G|------------5555555555555555555^|7-------------------------------|
D|----------(slowly increase bend)|--------------------------------|
A|--------------------------------|--------------------------------|
E|--------------------------------|--------------------------------|

  Guitar 1
e|--------------------------------|--------------------------------|
B|--------------------------------|--------------------------------|
G|7---5---7-----------------------|--------------------------------|
D|7---5---7-----------------------|--------------------------------|
A|5---3---5-----------------------|--------------------------------|
E|--------------------------------|--------------------------------|
 |
 |Guitar 2
e|--------------------------------|--------------------------------|
B|-------------------13v----10v---|1210x-1210x-1210x---------------|
G|-------------------12v----10v---|1210x-1210x-1210x---------------|
D|--------------------------------|----------------------12--12v---|
A|--------------------------------|--------------------------------|
E|--------------------------------|--------------------------------|

  Guitar 1
e|--------------------------------|--------------------------------|
B|--------------------------------|--------------------------------|
G|7---5---7-----------------------|--------------------3-----------|
D|7---5---7-----------------------|------------3-------3-----------|
A|5---3---5-----------------------|------------3-------1-----------|
E|--------------------------------|------------1-------------------|
 |
 |Guitar 2
e|--------------------------------|--------------------------------|
B|--------------------------------|--------------------------------|
G|12--10--12b---------------------|--------------------------------|
D|12--10--12b---------------------|--------------------------------|
A|--------------------------------|--------------------------------|
E|--------------------------------|--------------------------------|

  Guitar 1
e|--------------------------------|--------------------------------|
B|--------------------------------|--------------------------------|
G|7---5---7-----------------------|--------------------------------|
D|7---5---7-----------------------|--------------------------------|
A|5---3---5-----------------------|--------------------------------|
E|--------------------------------|--------------------------------|

 |Guitar 2
e|12------12------12------12------|14------15------16------17------|
B|15b-----15b-----15b-----15b-----|17b-----18b-----19b-----20b-----|
G|--------------------------------|--------------------------------|
D|--------------------------------|--------------------------------|
A|--------------------------------|--------------------------------|
E|--------------------------------|--------------------------------|

  Guitar 1
e|--------------------------------|--------------------------------|
B|--------------------------------|--------------------------------|
G|2-----------2-----------2-------|----2-----------5-------0-------|
D|2-----------2-----------2-------|----2-----------5-------0-------|
A|0---0---0---0---0---0---0---0---|0---0---0---0-------------------|
E|--------------------------------|--------------------------------|
 |
 |Guitar 2
e|18----------18----------18------|----------------21b~~r--18------|
B|21b---------21b---------21b-----|21pbr---18----------------------|
G|--------------------------------|--------------------------------|
D|--------------------------------|--------------------------------|
A|--------------------------------|--------------------------------|
E|--------------------------------|--------------------------------|

  Guitar 1
e|--------------------------------|--------------------------------|
B|--------------------------------|--------------------------------|
G|2-----------2-----------2-------|----2-----------7---\---5-------|
D|2-----------2-----------2-------|----2-----------5---\---3-------|
A|0---0---0---0---0---0---0---0---|0---0---0---0-------------------|
E|--------------------------------|--------------------------------|
 |
 |Guitar 2
e|--------------------------------|--------------------------------|
B|--------------------------------|--------------------------------|
G|7pbr7---5-----------------------|--------------------------------|
D|------------7---5---------------|--------------------------------|
A|--------------------7---6---5---|--------------------------------|
E|--------------------------------|7ph8p7---5---8b----5\-----------|

  Guitar 1
e|--------------------------------|--------------------------------|
B|--------------------------------|--------------------------------|
G|2-----------4-----------4-------|----4-----------5-------0-------|
D|2-----------2-----------3-------|----3-----------5-------0-------|
A|0---0---0---0---0---0---0---0---|0---0---0---0-------------------|
E|--------------------------------|--------------------------------|
 |
 |Guitar 2
e|--------------------------------|--------------------------------|
B|--------------------------------|--------------------------------|
G|12------101210---------10---1210|--101210---10----10-------------|
D|--------------------------------|12-------12--1112--1211---------|
A|--------------------------------|--------------------------------|
E|--------------------------------|--------------------------------|

  Guitar 1
e|--------------------------------|--------------------------------|
B|------------5-----------6-------|----8---------------------------|
G|2-----------4-----------5-------|----7-------------------2-------|
D|2-----------2-----------3-------|----5-------------------2-------|
A|0-----------2-----------3-------|----5-------------------0-------|
E|--------------------------------|----------------3b--------------|
 |
 | Guitar 2
e|--12--15b---15v------------13---|17pbr----------------21pbr------|
B|-13-----------------------15----|--------15----17--18------------|
G|14----------------------/17-----|--------------------------------|
D|--------------------------------|----------------------------\---|
A|--------------------------------|----------------------------\---|
E|--------------------------------|--------------------------------|

  Pre-Chorus B
  Guitar 1 (Clean)
e|--------------------------------|--------------------------------|
B|--------------------------------|--------------------------------|
G|----3-----------2---------------|----3-----------2---------------|
D|--------3-----------3-------3---|--------3-----------3-------3---|
A|1-----------1-----------1-------|1-----------1-----------1-------|
E|--------------------------------|--------------------------------|
 |
 |Guitar 2 (Overdriven)
e|--------------------------------|--------------------------------|
B|--------------------------------|--------------------------------|
G|3~~~~~~~~~~~~~~~~~~~~~~~~~~~~~~~|~~~~~~~~~~~~~~~~~~~~~~~~~~~~~~~~|
D|4~~~~~~~~~~~~~~~~~~~~~~~~~~~~~~~|~~~~~~~~~~~~~~~~~~~~~~~~~~~~~~~~|
A|1~~~~~~~~~~~~~~~~~~~~~~~~~~~~~~~|~~~~~~~~~~~~~~~~~~~~~~~~~~~~~~~~|
E|--------------------------------|--------------------------------|

  Guitar 1
e|--------------------------------|--------------------------------|
B|--------------------------------|--------------------------------|
G|----5-----------4---------------|----5-----------4---------------|
D|--------5-----------5-------5---|--------5-----------5-------5---|
A|3-----------3-----------3-------|3-----------3-----------3-------|
E|--------------------------------|--------------------------------|
 |
 |Guitar 2
e|--------------------------------|--------------------------------|
B|--------------------------------|--------------------------------|
G|5~~~~~~~~~~~~~~~~~~~~~~~~~~~~~~~|~~~~~~~~~~~~~~~~~~~~~~~~~~~~~~~~|
D|6~~~~~~~~~~~~~~~~~~~~~~~~~~~~~~~|~~~~~~~~~~~~~~~~~~~~~~~~~~~~~~~~|
A|3~~~~~~~~~~~~~~~~~~~~~~~~~~~~~~~|~~~~~~~~~~~~~~~~~~~~~~~~~~~~~~~~|
E|--------------------------------|--------------------------------|

  Guitar 1
e|--------------------------------|--------------------------------|
B|--------------------------------|--------------------------------|
G|----3-----------2---------------|----3-----------2---------------|
D|--------3-----------3-------3---|--------3-----------3-------3---|
A|1-----------1-----------1-------|1-----------1-----------1-------|
E|--------------------------------|--------------------------------|
 |
 |Guitar 2
e|--------------------------------|--------------------------------|
B|--------------------------------|--------------------------------|
G|7~~~~~~~~~~~~~~~~~~~~~~~~~~~~~~~|~~~~~~~~~~~~~~~~~~~~~~~~~~~~~~~~|
D|8~~~~~~~~~~~~~~~~~~~~~~~~~~~~~~~|~~~~~~~~~~~~~~~~~~~~~~~~~~~~~~~~|
A|5~~~~~~~~~~~~~~~~~~~~~~~~~~~~~~~|~~~~~~~~~~~~~~~~~~~~~~~~~~~~~~~~|
E|--------------------------------|--------------------------------|

  Guitar 1
e|--------------------------------|--------------------------------|
B|--------------------------------|--------------------------------|
G|----5-----------4---------------|5---5---5---5---5---5---5---5---|
D|--------5-----------5-------5---|5---5---5---5---5---5---5---5---|
A|3-----------3-----------3-------|3---3---3---3---3---3---3---3---|
E|--------------------------------|--------------------------------|
 |
 |Guitar 2
e|--------------------------------|--------------------------------|
B|--------------------------------|--------------------------------|
G|9~~~~~~~~~~~~~~~~~~~~~~~~~~~~~~~|5---5---5---5---5---5---5---5---|
D|10~~~~~~~~~~~~~~~~~~~~~~~~~~~~~~|5---5---5---5---5---5---5---5---|
A|7~~~~~~~~~~~~~~~~~~~~~~~~~~~~~~~|3---3---3---3---3---3---3---3---|
E|--------------------------------|--------------------------------|


  Chorus
  Guitar 1 (Overdriven)
e|--------------------------------|--------------------------------|
B|--------------------------------|--------------------------------|
G|7---5---7-----------------------|--------------------3-----------|
D|7---5---7-----------------------|------------3-------3-----------|
A|5---3---5-----------------------|------------3-------1-----------|
E|--------------------------------|------------1-------------------|
 |
 |Guitar 2
e|--------------------------------|--------------------------------|
B|--------------------------------|--------------------------------|
G|7---5---7-----------------------|--------------------3-----------|
D|7---5---7-----------------------|------------3-------3-----------|
A|5---3---5---5---5---5---5---5---|5---5---5---3-------1-----------|
E|--------------------------------|------------1-------------------|

  Guitar 1
e|--------------------------------|--------------------------------|
B|--------------------------------|--------------------------------|
G|7---5---7-----------------------|--------------------------------|
D|7---5---7-----------------------|------------3-------5-----------|
A|5---3---5-----------------------|------------3-------5-----------|
E|--------------------------------|------------1-------3-----------|
 |
 |Guitar 2
e|--------------------------------|--------------------------------|
B|--------------------------------|--------------------------------|
G|7---5---7-----------------------|--------------------------------|
D|7---5---7-----------------------|------------3-------5-----------|
A|5---3---5---5---5---5---5---5---|5---5---5---3-------5-----------|
E|--------------------------------|------------1-------3-----------|

  Guitar 1
e|--------------------------------|--------------------------------|
B|--------------------------------|--------------------------------|
G|7---5---7-----------------------|--------------------3-----------|
D|7---5---7-----------------------|------------3-------3-----------|
A|5---3---5-----------------------|------------3-------1-----------|
E|--------------------------------|------------1-------------------|
 |
 |Guitar 2
e|--------------------------------|--------------------------------|
B|--------------------------------|--------------------------------|
G|7---5---7-----------------------|--------------------3-----------|
D|7---5---7-----------------------|------------3-------3-----------|
A|5---3---5---5---5---5---5---5---|5---5---5---3-------1-----------|
E|--------------------------------|------------1-------------------|

  Guitar 1
e|--------------------------------|--------------------------------|
B|--------------------------------|--------------------------------|
G|7---5---7~~~~~~~~~~~~~~~~~~~~~~~|~~~~~~~~~~~~--------------------|
D|7---5---7~~~~~~~~~~~~~~~~~~~~~~~|~~~~~~~~~~~~3-------5-----------|
A|5---3---5~~~~~~~~~~~~~~~~~~~~~~~|~~~~~~~~~~~~3-------5-----------|
E|--------------------------------|------------1-------3-----------|
 |
 |Guitar 2
e|--------------------------------|--------------------------------|
B|--------------------------------|--------------------------------|
G|7---5---7-----------------------|--------------------------------|
D|7---5---7-----------------------|------------3-------5-----------|
A|5---3---5---5---5---5---5---5---|5---5---5---3-------5-----------|
E|--------------------------------|------------1-------3-----------|


  Outro
  Guitar 1
e|--------------------------------|--------------------------------|
B|--------------------------------|--------------------------------|
G|7---5---7---7---7---7---7---7---|7---7---7-----------3-----------|
D|7---5---7---7---7---7---7---7---|7---7---7---3-------3-----------|
A|5---3---5---5---5---5---5---5---|5---5---5---3-------1-----------|
E|--------------------------------|------------1-------------------|
 |
 |Guitar 2
e|--------------------------------|--------------------------------|
B|--------------------------------|--------------------------------|
G|7---5---7---7---7---7---7---7---|7---7---7-----------3-----------|
D|7---5---7---7---7---7---7---7---|7---7---7---3-------3-----------|
A|5---3---5---5---5---5---5---5---|5---5---5---3-------1-----------|
E|--------------------------------|------------1-------------------|

  Guitar 1
e|--------------------------------|--------------------------------|
B|--------------------------------|--------------------------------|
G|7---5---7---7---7---7---7---7---|7---7---7-----------------------|
D|7---5---7---7---7---7---7---7---|7---7---7---3-------5-----------|
A|5---3---5---5---5---5---5---5---|5---5---5---3-------5-----------|
E|--------------------------------|------------1-------3-----------|
 |
 |Guitar 2
e|--------------------------------|--------------------------------|
B|--------------------------------|--------------------------------|
G|7---5---7---7---7---7---7---7---|7---7---7-----------------------|
D|7---5---7---7---7---7---7---7---|7---7---7---3-------5-----------|
A|5---3---5---5---5---5---5---5---|5---5---5---3-------5-----------|
E|--------------------------------|------------1-------3-----------|

  Guitar 1
e|--------------------------------|--------------------------------|
B|--------------------------------|--------------------------------|
G|7---5---7---7---7---7---7---7---|7---7---7-----------3-----------|
D|7---5---7---7---7---7---7---7---|7---7---7---3-------3-----------|
A|5---3---5---5---5---5---5---5---|5---5---5---3-------1-----------|
E|--------------------------------|------------1-------------------|
 |
 |Guitar 2
e|--------------------------------|--------------------------------|
B|--------------------------------|--------------------------------|
G|7---5---7---7---7---7---7---7---|7---7---7-----------3-----------|
D|7---5---7---7---7---7---7---7---|7---7---7---3-------3-----------|
A|5---3---5---5---5---5---5---5---|5---5---5---3-------1-----------|
E|--------------------------------|------------1-------------------|

  Guitar 1
e|--------------------------------|--------------------------------|
B|--------------------------------|--------------------------------|
G|7---5---7---7---7---7---7---7---|7---7---7-----------------------|
D|7---5---7---7---7---7---7---7---|7---7---7---3-------5-----------|
A|5---3---5---5---5---5---5---5---|5---5---5---3-------5-----------|
E|--------------------------------|------------1-------3-----------|
 |
 |Guitar 2
e|--------------------------------|--------------------------------|
B|--------------------------------|--------------------------------|
G|7---5---7---7---7---7---7---7---|7---7---7-----------------------|
D|7---5---7---7---7---7---7---7---|7---7---7---3-------5-----------|
A|5---3---5---5---5---5---5---5---|5---5---5---3-------5-----------|
E|--------------------------------|------------1-------3-----------|



  Guitar 1 (Clean)
e|----------------0---------------|----------------0---------------|
B|--------------------0-----------|--------------------0-----------|
G|--------5---------------5-------|--------5---------------5-------|
D|----7-------7---------------7---|----7-------7---------------7---|
A|5-------------------------------|5-------------------------------|
E|--------------------------------|--------------------------------|
 |
 |Guitar 2
e|--------------------------------|--------------------------------|
B|--------------------------------|--------------------------------|
G|7---5---7~~~~~~~~~~~~~~~~~~~~~~~|~~~~~~~~~~~~~~~~~~~~~~~~~~~~~~~~|
D|7---5---7~~~~~~~~~~~~~~~~~~~~~~~|~~~~~~~~~~~~~~~~~~~~~~~~~~~~~~~~|
A|5---3---5~~~~~~~~~~~~~~~~~~~~~~~|~~~~~~~~~~~~~~~~~~~~~~~~~~~~~~~~|
E|--------------------------------|--------------------------------|

  Guitar 1 (Overdriven)
e|--------------------------------|--------------------------------|
B|--------------------------------|--------------------------------|
G|7---5---7\----------------------|--------------------------------|
D|7---5---7\----------------------|--------------------------------|
A|5---3---5\----------------------|--------------------------------|
E|--------------------------------|--------------------------------|
 |
 |Guitar 2
e|--------------------------------|--------------------------------|
B|--------------------------------|--------------------------------|
G|7---5---7\----------------------|--------------------------------|
D|7---5---7\----------------------|--------------------------------|
A|5---3---5\----------------------|--------------------------------|
E|--------------------------------|--------------------------------|


************************************

| /   slide up
| \   slide down
| h   hammer-on
| p   pull-off
| v   vibrato
| ~   sustain
| x   Mute note
| b   Bend
| pb  Pre-bend
| br  Bend release
| pbr Pre-bend release

************************************

            
            
Suggest correction
Creating personal tab
Creating personal tab
You can edit any tab online and save it as your Personal.

You can edit, replace or remove any tab part or add personal notes – all changes will be seen only by you.

Personal tabs can be accessed anytime from any device, even offline.
Learn more »
Give kudos to tab author, rate the tab!
1 2 3 4 5
comments
print report bad tab
guest
You may want to rate the tab now too:
select rating
Wanna post a correction for this tab? Suggest correction