Oops, an error
Loading. Please wait.

Fractured Love bass

67 views 1 this week
no commentswrite comment
1 2 3 4 5
3 more votes to show rating
add to favorites
×
Save as Personal and add changes to this tab that will be seen only by you. Learn more ›
×
You can save this tab as Personal to edit and correct it or add notes. All changes will be seen only by you. Learn more »
launch autoscroll
font size
0
reset
guitar tuner
edit
Autoscroll
slow
fast
+/-
esc
set tempo
stop
Author
Difficulty
DEF LEPPARD - Fractured Love

Tabbed by: miguelon76 22 - sept - 2015
E-mail: mithrandir_nbr@hotmail.com
Tuning: standard G D A E

[NOTE: For me this song is a weird one (though I love it :) ), it hasn't
been easy to tab, I couldn't hear the bass enough clearly sometimes,
the drums are a mess, they doesn't seem to follow a fixed pattern and
sometimes I'm not sure if I'm hearing the bass or the drums, so probably
this is not one of my best tabs. I have been as accurate as I could but
I'm not happy with the result. However it's not bad though, it can be a
good beginning if you want to play this song. Also, don't trust the
division in bars, it's just orientative. Enjoy! :) ]

000 -> triplet
* -> silence


INTRO (no bass)

I'm caught in a dream, sometimes it ain't what it seems
I'm all in a daze, can't fight my way out of this maze
I'm lookin' for clues and wantin' a change in the rules
I'm locked in a cage, actin' out on the wrong stage

(Don't want your sympathy)
No, no, no
(Don't need the third degree)
No, no, no
(Just gotta break away and scream)
I'm caught in a dream

I'm stood at the edge and I'm looking down
Caught in the danger zone
I feel like a King that has lost his crown
And now I stand here alone

(Don't want your sympathy)
No
(Don't need the third degree)
No
(Just gotta break away and scream)

I'm caught in a dream!!!
                       CHORUS    x2
                       Fractured love!
---------------------||------------||--------------|---------------|
---------------------||------------||--------------|---------------|
------------------/6-||------------||--------------|-------5-5-----|
---------------------||-0--0--0--0-||-0-0--0--0--0-|-0--0------5-5-|

                                    VERSE      x2
              x2                    I don't care...
||--------------||-----------------||------------||--------------|
||--------------||-----------------||------------||--------------|
||--------------||---------5-5-4-4-||------------||--------------|
||-0-0--0--0--0-||-0-0--0----------||-0--0--0--0-||-0-0--0--0--0-|

                 Reach out...
|---------------|--------------|------------|--------------|
|---------------|--------------|------------|--------------|
|-------5-5-----|--------------|------------|--------------|
|-0--0------5-5-|-0-0--0--0--0-|-0--0--0--0-|-0-0--0--0--0-|

                  CHORUS      x2
                      Fractured love!
|----------------||--------------||------------|-----------------|
|----------------||--------------||------------|-----------------|
|--------5-5-4-4-||--------------||------------|---------5-5-----|
|-0-0--0---------||-0--0--0-0--0-||-0--0--0--0-|-0-0--0------5-5-|

                              x2                     BRIDGE
|----------------||--------------||-----------------|----------------------------|
|----------------||--------------||-----------------|----------------------------|
|----------------||--------------||---------5-5-4-4-|--------------5\3-3-----3-3-|
|-0-0--0--0-0--0-||-0--0-0--0--0-||-0-0--0----------|-00-0-2-3-2--0------0-0-----|

        I'm caught in a dream!         SOLO         x3
|-------------|-----------------------||--------------||---------------|
|-------------|-----------------------||--------------||---------------|
|-(3)---------|----------------0-0--0-||--------------||-------5-5-----|
|-------------|-----------------------||-0--0--0-0--0-||-0--0------5-5-|

                              x2
|----------------||--------------||---------------|-----------|
|----------------||--------------||---------------|-----------|
|----------------||--------------||-------5-5-4-4-|-3-3-------|
|-0-0--0--0-0--0-||-0--0--0-0--0-||-0--0----------|-----------|

                                  BRIDGE               Don't want your sympathy...
|-----------|--------|-----------|-------------------------|----------------------|
|-----------|--------|-------5-4-|-2-----------------------|----------------------|
|-(3)-------|-0------|-(0)-------|----------------5\3-3----|----------------------|
|-----------|--------|-----------|---00-0-2-3-2-0----------|----------------------|


 Don't want the 3rd...  Just gotta...  Break away and scream!
|---------------------|------------|--------------------------|
|---------------------|------------|--------------------------|
|-0-------------------|-3--*--*--*-|--------------------------|
|---------------------|------------|--------------------------|

                                         CHORUS     x3
|---------------------|-----------------||------------||---------------|
|---------------------|---------5-4-2---||------------||---------------|
|---------------5\3-3-|-0-0--0----------||------------||-------5-5-----|
|-00-0-2-3-2--0-------|---------------0-||-0--0--0--0-||-0--0------5-5-|

            x2
||------------||--------------|---------------|--------------|
||------------||--------------|---------------|--------------|
||------------||--------------|-------5-5-4-4-|--------------|
||-0--0--0--0-||-0-0--0--0--0-|-0--0----------|-0-0--0--0--0-|

                                                         x3
|------------|--------------|--------------||--------------||
|------------|--------------|--------------||--------------||
|------------|--------------|--------------||--------------||
|-0--0--0--0-|-0--0--0-0--0-|-0-0--0--0--0-||-0--0--0-0--0-||


|-----------------|---------------|---------------|----------------|
|-----------------|---------------|---------------|----------------|
|-5-0-0-5-0-3-3---|-------------3-|-------------0-|------5---------|
|---------------0-|-000-000-000---|-000-000-000---|-0-0-----0-0--0-|


|----------------|---------------|---------------|------------|
|----------------|---------------|---------------|------------|
|-----5-5--------|-------------3-|-------------0-|-5----5-0-*-|
|-0-0-----5-5--0-|-000-000-000---|-000-000-000---|------------|


|----------------|--------------|
|----------------|--------------|
|-5-0-*--5-0-*---|--------------|
|----------------|-0-0--0--*--*-|

            
            
Suggest correction
Creating personal tab
Creating personal tab
You can edit any tab online and save it as your Personal.

You can edit, replace or remove any tab part or add personal notes – all changes will be seen only by you.

Personal tabs can be accessed anytime from any device, even offline.
Learn more »
Give kudos to tab author, rate the tab!
1 2 3 4 5
comments
print report bad tab
guest
You may want to rate the tab now too:
select rating
Wanna post a correction for this tab? Suggest correction