Oops, an error
Loading. Please wait.

Gods Of War Tab

version 1
version 1

Whole song

Interactive

28,730 views 45 this week
3 commentsread comments
1 2 3 4 5
x 17
add to favorites
×
Save as Personal and add changes to this tab that will be seen only by you. Learn more ›
×
You can save this tab as Personal to edit and correct it or add notes. All changes will be seen only by you. Learn more »
save as personal
new!
launch autoscroll
font size
0
reset
how to read this tab
guitar tuner
backing track
0:00
0:00
Autoscroll
slow
fast
+/-
esc
set tempo
stop
[Intro]
e|---------------------------------------------------------------------|
B|--10--------\8---7----------------7---8---/10------------------------|
G|--------------------------7\5----------------------------------------|
D|------------------------------------------------------0--0--0--0-----|
A|---------------------------------------------------------------------|
E|---------------------------------------------------------------------|

[song:  part A
e|----------------------------------------------------------------------|
B|------------7------------------------------------7--------------------|
G|------6--------6---------------------------6--------6-----------------|
D|---------6---------6/9vvvvvvvvv---------------6---------6\2vvvvvvvv---|
A|--4-------------------------------------4-----------------------------|
E|----------------------------------------------------------------------|

                                                               [end of A]
e|----------------------------------------------------------------------|
B|------------7---------------------------------------------------------|
G|------6--------6---------------------------4-----6------4-------------|
D|---------6---------6/7vvvvvvvvv---------------4-----6--------2vvvvvv--|
A|--4-------------------------------------4-----------------------------|
E|----------------------------------------------------------------------|

[Part R]
e|---------------------------------------------------------------|
B|----5--4>5>4------5--4>5>4-------4---5---4---------------------|
G|--------------4--------------4---------------4---6-------------|
D|------------------------------------------------------6---7----|
A|---------------------------------------------------------------|
E|-0-------------------------------------------------------------|

                                              repeat once [Part R]
e|---------------------------------------------------------------|
B|----5--4>5>4------5--4>5>4-------4---5---4-------/8vvvvvvv-----|
G|--------------4--------------4---------------4---/7vvvvvvv-----|
D|---------------------------------------------------------------|
A|---------------------------------------------------------------|
E|-0-------------------------------------------------------------|

[Verse 1+2]
  second time add part a
e|-----------------------------------------------------------|
B|-----------------------------------------------------------|
G|---6---6---6---6---6---6---6-------------------------------|
D|---6---6---6---6---6---6---6-----------6-----------9-------|
A|---4---4---4---4---4---4---4--------4-----4-----7-----7----|
E|------------------------------0--2-----------5-------------|

e|-----------------------------------------------------------|
B|-----------------------------------------------------------|
G|---6---6---6---6---6---6---6-------------------------------|
D|---6---6---6---6---6---6---6--------4--4-------------------|
A|---4---4---4---4---4---4---4--0--0--2--2--2--2--4--4-------|
E|------------------------------------------0--0--2--2-------|

e|-----------------------------------------------------------|
B|-----------------------------------------------------------|
G|---6---6---6---6---6---6---6-------------------------------|
D|---6---6---6---6---6---6---6-----------6--------9-----11---|
A|---4---4---4---4---4---4---4--------4-----4----------------|
E|------------------------------0--2-----------5-----7-------|


e|-----------------------------------------------------------|
B|-----------------------------------------------------------|
G|---6---6---6---6---6---6---6-------------------------------|
D|---6---6---6---6---6---6---6---4---4---2---2---------------|
A|---4---4---4---4---4---4---4---2---2---0---0---------------|
E|-----------------------------------------------------------|

[Pre-Chorus 1]
e|-------------------------------------------------------|
B|-------5-----------5---------------5--------5----------|
G|----------5-----------5---------------7--------7-------|
D|--3----------5------------3---5----------5---------5---|
A|-------------------------------------------------------|
E|-------------------------------------------------------|

e|-------------------------------------------------------|
B|-------5-----------5---------------5-------------------|
G|----------5-----------5----------------7---------------|
D|--3----------5------------3--5------------5------------|
A|-------------------------------------------------------|
E|-------------------------------------------------------|

first verse, repeat [Pre-chorus 1], then [Pre-chorus 2], then go back to verse(2nd)
second verse, go to [Pre-chorus 2], then to [Chorus]

[Pre-Chorus 2]
e|----------------------------------------------|
B|----------------------------------------------|
G|----------------------------------------------|
D|-----------------------------------7----------|
A|--9--9--9--9--9--9--9--9--9--9--9--5---7---7--|
E|--7--7--7--7--7--7--7--7--7--7--7------5---5--|

e|-----------------------------------------------|
B|-----------------------------------------------|
G|-----------------------------------------------|
D|--9--9--9--9--9--9--9--9--9--9--9--------------|
A|--7--7--7--7--7--7--7--7--7--7--7--7--7--7--9\-|
E|-----------------------------------5--5--5--7\-|

e|----------------------------------------------|
B|----------------------------------------------|
G|----------------------------------------------|
D|-----------------------------7----------------|
A|--9--9--9--9--9--9--9--9--9--5--7--7----------|
E|--7--7--7--7--7--7--7--7--7-----5--5----------|

1st time;
e|-------------------------------------------------|
B|-------------------------------------------------|
G|-------------------------------------------------|
D|--9--9--9--9--9--9--9--9--9--9--9--9--9--9--9--9-|
A|--7--7--7--7--7--7--7--7--7--7--7--7--7--7--7--7-|
E|-------------------------------------------------|

2nd time;
e|-------------------------------------------------|
B|-------------------------------------------------|
G|--------------------------------5--5--------7--7-|
D|--9--9--9--9--9--9--9--9--9--9--5--5--5--5--7--7-|
A|--7--7--7--7--7--7--7--7--7--7--3--3--5--5--5--5-|
E|--------------------------------------3--3-------|

[Chorus]
e|----------------------------------------------------------------------------|
B|-------------------------------------------8--8-----------------------------|
G|------------5----5----5--5--------7--7-----7--7---5---5---5--5--------5--5--|
D|----5---5---5----5----5--5--5--5--7--7------------5---5---5--5--5--5--5--5--|
A|----2---2---3----3----3--3--5--5--5--5------------3---3---3--3--5--5--7--7--|
E|----------------------------3--3--------------------------------3--3--------|

e|------------------------------------------------------------|
B|------------------------------------------------------------|
G|------------5---5---5--5--------7--7------------------------|
D|----5---5---5---5---5--5--5--5--7--7------------------------|
A|----2---2---3---3---3--3--5--5--5--5------------------------|
E|--------------------------3--3-------------3---3---2---0----|

go back and repaet part that begins with the little r.

e|-----------------------------------------------------------------|
B|-----------7--------------------------------7--------------------|
G|---6----------6----------------------6----------6--------9-------|
D|-------6---------6-----9VVVVVV----------6------------6---------7-|
A|-----------------------------------------------------------------|
E|-----------------------------------------------------------------|

e|---------------------------------------11---12---11--12--12>(14)----11-11>(12)-|
B|----------------------------12--12/14---------------------------14-------------|
G|---9/11------11-11/13vvvvv-----------------------------------------------------|
D|---------9---------------------------------------------------------------------|
A|-------------------------------------------------------------------------------|
E|-------------------------------------------------------------------------------|

e|--------------------------------------------------------------------------|
B|--------------------------------------------------------------------------|
G|----13vvvvvvvvv----11>(13)>11---------11>(13)>11---11>9--------11/13------|
D|-----------------------------------------------------------9--------------|
A|--------------------------------------------------------------------------|
E|--------------------------------------------------------------------------|

go back and repeat appropriate parts. The segue to the end is

e|--------------------|
B|--------------------|
G|----5---5-----------|
D|----5---5---5-----2-|
A|----3---3---2-----0-|
E|--------------------|

  accoustic;
e|-------------------------------------0----------------------------0------|
B|-------------0>1>0--------------0>1-----------3----------------0-----0---|
G|---------2-----------2-------2--------------2---------------5------------|
D|------2--------------------------------------------------3---------------|
A|---0---------------------3----------------------------5------------------|
E|-----------------------------------------2---------0---------------------|

[Symbols]
******************************************|
legato            ----2>3>4>2-------------|
bend            ----2>(4)-----------------|
bend and release    ----2>(4)>2-----------|
vibrato            ----2vvvvvvvvv---------|
deep vibrato with bar    ----2VVVVVVVVV---|
******************************************|
Suggest correction
comments
print report bad tab
3 comments total.
+1 reply
pickslide94 15 Nov 15, 2008 02:33 PM

great tab, awesome could read it easily.

0 reply
stogma 20 Apr 27, 2013 07:37 AM

This is an awesome tab. Nice work

0 reply
14000watts 41 Aug 08, 2013 09:46 AM

-------------------------------------0------------------------------0------
-------------0>1>0--------------0>1-----------3------------------0-----0---
---------2-----------2-------2--------------2-----------------5------------
------2----------------------------------------------------3---------------
---0---------------------3------------------------------5------------------
-----------------------------------------2--------1---0--------------------
Is there supposed to be an F between the F# and open E?

guest
Wanna post a correction for this tab? Suggest correction