Oops, an error
Loading. Please wait.

Heaven Is Tab

version 2
version 2

Whole song

Interactive

1,067 views 1 this week
no commentswrite comment
1 2 3 4 5
please rate
add to favorites
launch autoscroll
font size
0
reset
how to read this tab
guitar tuner
Autoscroll
slow
fast
+/-
esc
set tempo
stop
Help us to improve Ultimate-Guitar.com Take our survey!
×
Author
Difficulty
intermediate
Right, so this is my first tab. It's a rockin' tune from back in '93, one of my 
favourite Def Lep songs.
I put a bit of time into it to get it right so hope you like it.

I have included my interpretation of the solo which sounds alot like the track.

----------------------------------------------------------------------------
Tuning: Standard
Effect: Distortion w/Delay

Legend:
/  Slide Up
\  Slide Down
h  Hammer On
p  Pull Off
~  Let Ring
pm Palm Mute
x  Mute Note
v  Vibrato
r  Return

----------------------------------------------------------------------------

Intro:

     D         C         G         D
e||--------------------------------------------------|
B||---------3---------3---------3---------3----------|
G||------2---------0---------0---------2-------------|
D||--0~----------------------------0~----------------|
A||------------3~------------------------------------|
E||----------------------3~--------------------------|

     D         C            G
e||--------------------------------------------------|
B||---------3---------3-----3~-----------------------|
G||------2---------0--------0~-----------------------|
D||--0~---------------------0~-----------------------|
A||------------3~------------------------------------|
E||--------------------------------------------------|


Verse 1:

     B     E  B          B       Em  B
e||-------------------|----------------------|
B||--------5----------|----------------------|
G||--4--4--4--4--4-4--|--4-x-x-4-----4--x-x--|
D||--4--4--2--4--4-4--|--4-x-x-4--2--4--x-x--|
A||--2--2-----2--2-2--|--2-x-x-2--2--2--x-x--|
E||-------------------|-----------0----------|

     B     E  B          B       Em  B
e||-------------------|----------------------|
B||--------5----------|----------------------|
G||--4--4--4--4--4-4--|--4-x-x-4-----4--4-4--|
D||--4--4--2--4--4-4--|--4-x-x-4--2--4--4-4--|
A||--2--2-----2--2-2--|--2-x-x-2--2--2--2-2--|
E||-------------------|-----------0----------|

     Em    A  Em         B        E  B
e||-------------------|----------------------|
B||-------------------|-----------5----------|
G||--------2----------|--4-x-x-4--4--4--4-4--|
D||--2--2--2--2--2-2--|--4-x-x-4--2--4--4-4--|
A||--2--2--0--2--2-2--|--2-x-x-2-----2--2-2--|
E||--0--0-----0--0-0--|----------------------|


Pre-chorus:

   pm . . . . . . . . . . . . . . . . . . . . . . .
e||-----------------------------------------------------|
B||-----5--------4--------------5--------4--------4-----|
G||--------4--------4-----4--------4--------4-----------|
D||--2--------2--------2-----2--------2--------2-----2--|
A||-----------------------------------------------------|
E||-----------------------------------------------------|

   pm . . . . . . . . . . . . . . . . . . . . . . .
e||--------------------------------------------------|
B||--5--------4--------------5--------4--------4-----|
G||-----4--------4-----4--------4--------4-----------|
D||--------2--------2-----2--------2--------2-----2--|
A||--------------------------------------------------|
E||--------------------------------------------------|

   pm . . . . . . . . . . . . . . . . . . . . . . .
e||-----0--------0-----------0--------0--------------|
B||--------3--------3-----------3--------3-----------|
G||-----------2--------2-----------0--------0--------|
D||--0-----------------------------------------------|
A||--------------------------------------------------|
E||-----------------------3--------------------------|


Chorus:

     D         C         G         D
e||--------------------------------------------------|  x 4
B||---------3---------3---------3---------3----------|
G||------2---------0---------0---------2-------------|
D||--0~----------------------------0~----------------|
A||------------3~------------------------------------|
E||----------------------3~--------------------------|


Verse 2:

     B     E  B          B       Em  B
e||-------------------|----------------------|
B||--------5----------|----------------------|
G||--4--4--4--4--4-4--|--4-x-x-4-----4--x-x--|
D||--4--4--2--4--4-4--|--4-x-x-4--2--4--x-x--|
A||--2--2-----2--2-2--|--2-x-x-2--2--2--x-x--|
E||-------------------|-----------0----------|

     B     E  B          B       Em  B
e||-------------------|----------------------|
B||--------5----------|----------------------|
G||--4--4--4--4--4-4--|--4-x-x-4-----4--4-4--|
D||--4--4--2--4--4-4--|--4-x-x-4--2--4--4-4--|
A||--2--2-----2--2-2--|--2-x-x-2--2--2--2-2--|
E||-------------------|-----------0----------|


Pre-chorus:

   pm . . . . . . . . . . . . . . . . . . . . . . .
e||-----------------------------------------------------|
B||-----5--------4--------------5--------4--------4-----|
G||--------4--------4-----4--------4--------4-----------|
D||--2--------2--------2-----2--------2--------2-----2--|
A||-----------------------------------------------------|
E||-----------------------------------------------------|

   pm . . . . . . . . . . . . . . . . . . . . . . .
e||--------------------------------------------------|
B||--5--------4--------------5--------4--------4-----|
G||-----4--------4-----4--------4--------4-----------|
D||--------2--------2-----2--------2--------2-----2--|
A||--------------------------------------------------|
E||--------------------------------------------------|

   pm . . . . . . . . . . . . . . . . . . . . . . .
e||-----0--------0-----------0--------0--------------|
B||--------3--------3-----------3--------3-----------|
G||-----------2--------2-----------0--------0--------|
D||--0-----------------------------------------------|
A||--------------------------------------------------|
E||-----------------------3--------------------------|


Chorus:

     D         C         G         D
e||--------------------------------------------------|  x 5
B||---------3---------3---------3---------3----------|
G||------2---------0---------0---------2-------------|
D||--0~----------------------------0~----------------|
A||------------3~------------------------------------|
E||----------------------3~--------------------------|

     D         C         G          A
e||---------------------------------------------------|
B||---------3---------3--3--3~------2~----------------|
G||------2---------0-----0--0~------2~----------------|
D||--0~------------------0--0~------0~----------------|
A||------------3~-------------------------------------|
E||---------------------------------------------------|


Pre-Solo:

e||-------------------------------------------------------|
B||--10h12p10h12p10h12p10h12p10h12p10h12p10h12p10h12------|  Repeat as
G||-------------------------------------------------------|  necessary
D||-------------------------------------------------------|
A||-------------------------------------------------------|
E||-------------------------------------------------------|


Solo:

   pm..      ..  ..          ..      ..  ..      ..      ..
e||----------------------------------------------------------|
B||------10--------------------------------------------------|
G||----------10------12--10------10----------10------12------|
D||--10----------10----------10------10--10------10------10--|
A||----------------------------------------------------------|
E||----------------------------------------------------------|


   pm                          ..      .. ..  ..      ..
e||---------------------------------------------------------------------|
B||--10--11--10h11p10---------------------------------------------------|
G||--------------------12--10------10-----10--10--12--10--12--10--------|
D||----------------------------10------10--------------------------10\--|
A||---------------------------------------------------------------------|
E||---------------------------------------------------------------------|

   pm                .  .       .     .     .
e||-----------------------------------------------------------|
B||-----------------------------------------------------------|
G||--------------------------------------------4--5----4h5p4--|
D||--/9--7--5--7--5--------5-------5-----7--------------------|
A||------------------7--5-------7-----7-----7-----------------|
E||-----------------------------------------------------------|

   pm      .  .       .     .     .     .
e||----------------------------------------|
B||----------------------------------------|
G||----------------------------------------|
D||--7--5--------5-------5-----7-----9-----|
A||--------7--5-------7-----7-----7-----7--|
E||----------------------------------------|

   pm    ..      ..      ..
e||---------------------------------------------------------|
B||------------------12------14------16------17b19--17b19v--|
G||----------11----------11------11------11-----------------|
D||--13----------13-----------------------------------------|
A||------14-------------------------------------------------|
E||---------------------------------------------------------|


OK, here's the cool fast bit.

   pm                        ..  ..
e||--14p11---------------------------------------------------------|
B||---------12-------------------------------12s14--14b16--14b16v--|
G||-------------11-----------------------11------------------------|
D||------------------13--11------11--13----------------------------|
A||--------------------------14------------------------------------|
E||----------------------------------------------------------------|


Pre-chorus:

   pm . . . . . . . . . . . . . . . . . . . . . . .
e||-----------------------------------------------------|
B||-----5--------4--------------5--------4--------4-----|
G||--------4--------4-----4--------4--------4-----------|
D||--2--------2--------2-----2--------2--------2-----2--|
A||-----------------------------------------------------|
E||-----------------------------------------------------|

   pm . . . . . . . . . . . . . . . . . . . . . . .
e||--------------------------------------------------|
B||--5--------4--------------5--------4--------4-----|
G||-----4--------4-----4--------4--------4-----------|
D||--------2--------2-----2--------2--------2-----2--|
A||--------------------------------------------------|
E||--------------------------------------------------|

   pm . . . . . . . . . . . . . . . . . . . . . . .
e||-----0--------0-----------0--------0--------------|
B||--------3--------3-----------3--------3-----------|
G||-----------2--------2-----------0--------0--------|
D||--0-----------------------------------------------|
A||--------------------------------------------------|
E||-----------------------3--------------------------|

Chorus:

     D         C         G         D
e||--------------------------------------------------|  x 8
B||---------3---------3---------3---------3----------|
G||------2---------0---------0---------2-------------|
D||--0~----------------------------0~----------------|
A||------------3~------------------------------------|
E||----------------------3~--------------------------|

     D
e||---------------------------------------|
B||--3--3~--------------------------------|
G||--2--2~-----------0-------0------------|
D||--0--0~--------0-------0-----5--5~~----|
A||------------3-------2--------5--5~~----|
E||-----------------------------3--3~~----|
Suggest correction
Give kudos to tab author, rate the tab!
1 2 3 4 5
comments
print report bad tab
guest
You may want to rate the tab now too:
select rating
Please do not post tabs as comments. Select "correction" instead!