Oops, an error
Loading. Please wait.

High N Dry Saturday Night Tab

version 1
version 1

Whole song

Interactive

14,341 views 18 this week
no commentswrite comment
1 2 3 4 5
1 last vote to show rating
add to favorites
launch autoscroll
font size
0
reset
how to read this tab
guitar tuner
Autoscroll
slow
fast
+/-
esc
set tempo
stop
From: polivier@jrv.interax.net

                          - H I G H  N'  D R Y - 
                              By Def Leppard
          Words and Music by Steve Clark, Rick Savage and Joe Elliot
                              Tabbed by FISH



Intro (Riff A):


e|----------------------3-------------------------------------3---------------|
B|--5---5---7---7-------3----3----4------------5--5--7--7-----3---3---4---4---|
G|--5---5---7---7-------4----3----3----5-------5--5--7--7-----4---3---3---3---|
D|---------------------------3----5----5--------------------------3---5---5---|
A|-------------------------------------7--------------------------------------|
E|----------------------------------------------------------------------------|


Verse I: (w/Riff A)

Saturday, I feel right, I've been drinkin' all day
Yes i got a date, a midnight ride, i had to get it away... Yeah,


Pre-Chorus:

D5          A5   E5         C5
  I'm not a loner, i'm not a fool
D5             A5      B5           G5
  Dont need no reason, reason to be cool
D5            A5     E5           C5
  I've got my whiskey, i've got my wine
D5            A5   B5                 G5
  I've got my woman and this time the lights are going out...


Chorus: (w/Riff B)

Riff B:

   Sat ur day night  High ...            Sat ur day night   High &  
Dry

e|---------------------------------------------------------------------------|
B|---------------------------------------------------------------------------|
G|--5-----------------5--------7----------5------------------5----7---5------|
D|--5---7--7---7------5----7---7----------5---7--7---7-------5----7---5------|
A|------7--7---7-----------7------------------7--7---7-----------------------|
E|---------------------------------------------------------------------------|


Verse 2 (w/Riff A):

I feel bad, i feel mean,
I'm up and down and in between...
On the bottle, on the line,
I'm up and feelin' fine... Oh...


Bridge:
Play steady eights G two bars then the solo...

Solo:

     
       1/2         1/2   ~~~~~   Full

e|-------^---|-------^------------^------|-------------------------------|
B|------/----|-------|------------|------|-------------------------------|
G|--12-/-----|------12-----------14--14--|-----------14--12-----12\------|
D|-----------|--14--------14-------------|-------14---------14-----------|
A|-----------|---------------------------|-------------------------------|
E|-----------|---------------------------|-------------------------------|

       
       1/4          1/4                      1/4                   
1/2

e|-------^-----------^---------------|---------^---------------------^------|
B|------/-----------/----------------|--------/---------------------/-------|
G|-----/-----------/-----------------|-------/---------------------/--------|
D|--5/----2--5--5/--------2----------|-----/----------------------/---------|
A|---------------------------5----5--|--5/----------------------/-----------|
E|-----------------------------------|-----------------------3/-------------|



e|----------------------------------|------------------------------|
B|----------------------------------|------12-----14--12-----------|
G|----------------------------------|------12-----14--12-----------|
D|-------------------------2--2--2--|----------------------14------|
A|----------------------------------|------------------------------|
E|------0----5---3-----0------------|------------------------------|

                                                         
                                                         Full

e|--------------------------------------------|-------------^-----------------|
B|------------------------PO------------------|--12--------/-----15---12------|
G|------------12--------14--12-------12-------|--------14/--------------------|
D|----14----------14------------14--------14--|-------------------------------|
A|--------------------------------------------|-------------------------------|
E|--------------------------------------------|-------------------------------|


              ~~~~~      Full                                         
  ~~~~

e|-------------------------^----12-----------|--------------------------------|
B|-------------------------|-------15--12----|-12-------------12--------------|
G|-----14--12--14-----12--14--------------14-|-----15--14--12-------12------)-|
D|-------------------------------------------|---------------------------14/--|
A|-------------------------------------------|--------------------------------|
E|-------------------------------------------|--------------------------------|
    
     Full  Full  Full  Full    Full  Full
      |     |     |     |       |     |
e|---20----20----20----20---|--20----20---------PO-----------------|
B|---22----22----22----22---|--22----22-------22-20--22--20--------|
G|--------------------------|--------------------------------------|
D|--------------------------|--------------------------------------|
A|--------------------------|--------------------------------------|
E|--------------------------|--------------------------------------|


                     ~~~~~                            Full        
Full

e|--15--15------------------------------|---------------|-----------|-----------|
B|---------17----17--15----15--17-15----|-15--17-15----15--17-15---15--17-15--15|
G|------------16---------------------16-|-----------16----------16----------16--|
D|--------------------------------------|---------------------------------------|
A|--------------------------------------|---------------------------------------|
E|--------------------------------------|---------------------------------------|


                                     ~~~~~~

e|------------------------------------------|------------------------------|
B|--12---15--12----12----------14-----------|--12---14---------------------|
G|--------------15----15-14-12----12--------|--12---14--------14-----------|
D|------------------------------------14----|------------------------------|
A|------------------------------------------|------------------------------|
E|------------------------------------------|------------------------------|


     ~~~~~~~~~~~~~~~ (with vibrato)
e|---------------------------------|
B|---------------------------------|
G|---14----------------------------|
D|---------------------------------|
A|---------------------------------|
E|---------------------------------|



Verse 3 (w/Riff A):

Saturday, Kickin' Out,
I'll take what's comin' to me...
Gotta move, Number one,
Saturday night on the run...


Repeat Chorus then:         

                                         You got it  com-in' to- 
night!

e|-------------------|----------------|-------------------------------|
B|-------------------|----------------|-------------------------------|
G|------------7---7--|----------------|---7---7---7---7---7-----------|
D|------------7---7--|----------------|---7---7---7---7---7---7---7---|
A|-------------------|----------------|-----------------------7---7---|
E|-------------------|----------------|-------------------------------|



                            -  T H E  E N D  -
Suggest correction
Give kudos to tab author, rate the tab!
1 2 3 4 5
comments
print report bad tab
guest
You may want to rate the tab now too:
select rating
Wanna post a correction for this tab? Suggest correction