Oops, an error
Loading. Please wait.

Invincible Tab

28 views 6 this week
no commentswrite comment
1 2 3 4 5
1 last vote to show rating
add to favorites
launch autoscroll
font size
0
reset
how to read this tab
guitar tuner
Autoscroll
slow
fast
+/-
esc
set tempo
stop
Help us to improve Ultimate-Guitar.com Take our survey!
×
Author
Difficulty
Tuning
novice
D# G# C# F# A# D#
About this tab version
From Def Leppard's self-titled and latest album in late 2015. I struggled with whether Cadd9 sounded right or just C5, you be the judge. All in all I feel this is a solid base by which to start playing the song. I hope you like. Was this info helpful? Yes No
-------------------------------------------------------------------------------
                             Invincible - Def Leppard
-------------------------------------------------------------------------------
Tabbed by:  Huskee
E-mail:  amlyons@live.com

Tuning: *1/2 step down
*PLEASE NOTE: I chose to tab this 1/2 step down since the chords make more sense doing so.  For standard just 
go one fret down from all listed numberings.

Invincible
From the 2015 self-titled album, Def Leppard


(Bass starts with D-D-D-D-D-D-D-D-D-D-D-D-D-D-D-D-\-B-B-B-B-B-B-B-B-B-B-B-B-B-B-B-B) twice

GUITAR 1

    D                   B                   D                     B
e|------------------------------------------------------------------------------------|
B|------------------------------------------------------------------------------------|
G|--7--7-7--7--7-7--7\--4--4-4--4--4-4-4-/--7--7-7--7-7-7--7-7-\--4--4-4--4-4--4--4-4-|
D|--7--7-7--7--7-7--7\--4--4-4--4--4-4-4-/--7--7-7--7-7-7--7-7-\--4--4-4--4-4--4--4-4-|  repeat
A|--5--5-5--5--5-5--5\--2--2-2--2--2-2-2-/--5--5-5--5-5-5--5-5-\--2--2-2--2-2--2--2-2-|
E|--X--X-X--X--X-X--X---X--X-X--X--X-X-X----X--X-X--X-X-X--X-X----X--X-X--X-X--X--X-X-|
   pm ad-lib..........................................................................

  
GUITAR 2

e|--14--------------------------------------14----------------------------------------|
B|------15--------------14----------------------15----------------14------------------|
G|----------14~~~-----------14----------------------14~~~~------------14--------------| once
D|------------------------------16~~~~~-----------------------------------16~~~-------|
A|------------------------------------------------------------------------------------|
E|------------------------------------------------------------------------------------|

  with verse (1 octave lower):
e|------------------------------------------------------------------------------------|
B|---7--------------------------------------7-----------------------------------------|
G|------7----------------6---------------------7------------------6-------------------|
D|---------7~~~~------------7---------------------7~~~~--------------7----------------|
A|------------------------------9~~~------------------------------------9~~~----------|
E|------------------------------------------------------------------------------------|

D                             B
Just like the movies when the hero never dies
I am immortal When you        look into my eyes

C                            Em
A lead role in a gilded cage I could take the center stage

D                              B
Bruised hearts are broken when love is at the door
I bet your tears dried up    before they hit the floor

C                                      Em
I'm gonna take a guilt trip but I      promise be back soon
You wake up screaming when I leave the room


Chorus:
     D                     Cadd9            G
I am invincible 'Cos my    love is here to  stay
I am invincible and I will chase the ghosts away

         D                   
When you need a light in the darkest night

     Cadd9       G
Just hear what I say

       D                  Cadd9
I am invincible I'm not invisible

       D
I am invincible


(2nd verse+)

You keep on moving
Running from your perfect past
Hiding in your broken dreams
Was never gonna last
A love looking for a sign
A shiver looking for a spine
Never let that feeling slip away.

I am invincible
'Cos my love is here to stay
I am invincible
And I will chase the ghosts away
When you need a light in the darkest night
Just hear what I say
I am invincible I'm not invisible
I am invincible

I am invincible
'Cos my love is here to stay
I am invincible
And I will chase the ghosts away
When you need a light in the darkest night
Just hear what I say
I am invincible I'm not invisible
I am invincible 

************************************

| /   slide up
| \   slide down
| h   hammer-on
| p   pull-off
| ~   vibrato
| +   harmonic
| x   Mute note
| b   Bend
| pb  Pre-bend
| br  Bend release
| pbr Pre-bend release
| brb Bend release bend

************************************
Suggest correction
Give kudos to tab author, rate the tab!
1 2 3 4 5
comments
print report bad tab
guest
You may want to rate the tab now too:
select rating
Wanna post a correction for this tab? Suggest correction