Oops, an error
Loading. Please wait.

It Dont Matter Tab

version 1
version 1

Whole song

Interactive

1,817 views 6 this week
1 commentread comment
1 2 3 4 5
x 4
add to favorites
launch autoscroll
font size
0
reset
how to read this tab
guitar tuner
×
Best way to learn
"It Dont Matter"
Autoscroll
slow
fast
+/-
esc
set tempo
stop
-------------------------------------------------------------------------------
         "It Don't Matter" - Def Leppard - On Through The Night
-------------------------------------------------------------------------------
Tabbed by: Blindsighted
Email: Blindsighted@hotmail.com

Tuning:Standard (EADGBE)

| /  slide up
| \  slide down
| h  hammer-on
| p  pull-off
| ~  vibrato
| +  harmonic
| x  Mute note

Intro:
e|---------------------------------------------------------------------------|
B|---------------------------------------------------------------------------|
G|----------------------------------------4/5-5------------------------------|
D|------7--5h7p5----------------7--5h7p5--4/5-5------------------------------|
A|---0-----------h7---3h5p3--------------------------------------------------|
E|--------------------------h5-----------------------------------------------|

Verse:
e|---------------------------------------------------------------------------|
B|---------------------------------------------------------------------------|
G|---------------------------------------------------------------------------|
D|---2-2---2---4/55----------------------------------------------------------|
A|---0-0---0---2/33---33-----7h8p7--5h7p5------------------------------------|
E|--------------------11-----------------------------------------------------|

Chorus:
e|----------------------------------------------------------|-----------------|
B|----------------------------------------------------------|-----------------|
G|----------------------------------------------------------|-----------------|
D|-----------------------------77777777---------------------|:----------------|
A|----77777777----55555555-----55555555-----3-2-3-2-3-2-----|-----------------|
E|----55555555----33333333-------------------------------3/-|-----------------|

Bridge: Same as Intro
e|---------------------------------------------------------------------------|
B|---------------------------------------------------------------------------|
G|----------------------------------------4/5-5------------------------------|
D|------7--5h7p5----------------7--5h7p5--4/5-5------------------------------|
A|---0-----------h7---3h5p3--------------------------------------------------|
E|--------------------------h5-----------------------------------------------|

Verse
Chorus
Solo: I was to lazy to figure it out so just mess around it the A penatonic scales.
Chorus
Intro

Lyrics:
Now in your big flash motor and your wild reputation 
You're ready to hit the streets 
Winking at the boys, yeah heading for the noise 
Got the world at your feet 
If leaving me for dead with a pistol at my head 
Is your idea of how I'd feel 
Well let me tell you honey
'Fore you spend all of your money 
I got my hands firmly on the wheel, yeah

Now in your big flash motor and your wild reputation 
You're ready to hit the streets 
Winking at the boys, yeah heading for the noise 
Got the world at your feet 
If leaving me for dead with a pistol at my head 
Is your idea of how I'd feel 
Well let me tell you honey
'Fore you spend all of your money 
I got my hands firmly on the wheel, yeah 

It don't matter, it don't matter, it don't matter to me 
It don't matter, it don't matter, it don't matter to me 

Back street lover in the cold of the evening 
Takes you to a place he knows 
Says it will be fine better make up your mind 
You've cut it deep and now it shows 
It's way past midnight and you travel through the city 
You wonder what you should do 
Well baby can't you see that you've had enough of me 
And I've certainly had enough of you 

It don't matter, it don't matter, it don't matter to me 
It don't matter, it don't matter, it don't matter to me 

It don't matter, it don't matter, it don't matter to me 
It don't matter, it don't matter, it don't matter to me 
It don't matter, it don't matter, it don't matter to me 
It don't matter, it don't matter, it don't matter to me

It doesn't matter 
It doesn't matter 
It doesn't matter

Tabbed by Tristan
Suggest correction
comments
print report bad tab
1 comment total.
0 reply
jrjsamartgis 37 Nov 03, 2008 04:52 PM

Intro:
e|---------------------------------------------------------------------------|
B|---------------------------------------------------------------------------|
G|--------------------------------------------------4/5-5------------------------------|
D|------7--5h7p5----7-------------------7--5h7p5----4/5-5------------------------------|
A|---0-----------7----5---3h5p3-----0------------7---------------------------------|
E|-------------------------------5------------------------------------

guest
You may want to rate the tab now too:
select rating
Wanna post a correction for this tab? Suggest correction