Oops, an error
Loading. Please wait.

Let It Go Tab

version 2
version 2

Whole song

Interactive

12,768 views 36 this week
1 commentread comment
1 2 3 4 5
accurate
x 3
add to favorites
launch autoscroll
font size
0
reset
how to read this tab
guitar tuner
Autoscroll
slow
fast
+/-
esc
set tempo
stop
Help us to improve Ultimate-Guitar.com Take our survey!
×
Contributor
play the song to follow the beet:

(distortion on)
|--------------------------------------------|
|--------------------------------------------|
|------4f-2---------4f-0---------4f-2--------|
|---------------------------------------5--7-|
|-0-3-0-------0-3-0--------0-3-0--------3--5-|
|--------------------------------------------|

|--------------------------------------------------|
|--------------------------------------------------|
|-------4f-2---------4f-0---------4f-2-------------|
|------------------------------------------------7-|   x3
|-0-3-0--------0-3-0--------0-3-0--------3-2-0---5-|
|----------------------------------------------3---|

|-------------|
|-------------|
|-------------|
|-2-----------|
|-0-----------|
|-------------|

|-------------------------------|
|-------------------------------|
|-------------------------------|
|-0---5---7---2-------5---7---2-|
|-2---3---5---0---7---3---5---0-|
|-----------------5-------------|

|-----------------------------------------------------------|
|-----------------------------------------------------------|
|-----------------------------------------------------------|
|---------------5-------------7-------------2---------------|   x2
|-7-------------3---0-0-0-0-0-5---0-0-0-0-0-0---0-0-3-2-0---|
|-5---5-5-5-5-5---------------------------------------------|

|--------------------------------------------------|
|--------------------------------------------------|
|-------4f-2---------4f-0---------4f-2-----------7-|
|------------------------------------------------7-|   x2
|-0-3-0--------0-3-0--------0-3-0--------3-2-0---5-|
|----------------------------------------------3---|

|-----------------------------------------------------------|
|-----------------------------------------------------------|
|-----------------------------------------------------------|
|---------------5-------------7-------------2---------------|   x2
|-7-------------3---0-0-0-0-0-5---0-0-0-0-0-0---0-0-3-2-0---|
|-5---5-5-5-5-5---------------------------------------------|

|-----------------------------------------------------|
|-----------------------------------------------------|
|--------------5------------7------------7------------|
|-2--2-2--2--2-5--2-2--2--2-7--2-2--2--2-7------------|
|-0--0-0--0--0-3--0-0--0--0-5--0-0--0--0-5--0-0-3-2-0-|
|-----------------------------------------------------|

|--------------------------------------------------|
|--------------------------------------------------|
|-------4f-2---------4f-0---------4f-2-------------|
|------------------------------------------------7-|   x2
|-0-3-0--------0-3-0--------0-3-0--------3-2-0---5-|
|----------------------------------------------3---|

|--------------------------------|
|--------------------------------|
|--------------------------------|
|-2-----7--5--7-7-5-5----2-------|
|-0--5--5--3--5-5-3-3-5--0--5--5-|
|----3----------------3-----3--3-|

|-------------------------------------------------------|
|------------13-12--------------------------------------|
|------------------12---14-11---------------------------|
|-7--10--10/------------------12--7--5--5-------3-2-----|   x2
|-5--8---8-/----------------------5--3--3-5-3-5-----3-0-|
|-------------------------------------------------------|
   
(put off distortion)
|-----------------------------------|
|-----3------3---3-----3-------3----|
|---2---2------2-----2---2-3-2---2--|
|-0-------0--------3----------------|   x4
|-----------------------------------|
|-----------------------------------|

(put on distortion)
|-------------------------------------------------------|
|------------13-12--------------------------------------|
|------------------12---14-11---------------------------|
|-7--10--10/------------------12--7--5--5-------3-2-----|   x2
|-5--8---8-/----------------------5--3--3-5-3-5-----3-0-|
|-------------------------------------------------------|

|--------------------------------------------------|
|--------------------------------------------------|
|-------4f-2---------4f-0---------4f-2-------------|
|------------------------------------------------7-|   x2
|-0-3-0--------0-3-0--------0-3-0--------3-2-0---5-|
|----------------------------------------------3---|

|---------------------------|
|---------------------------|
|---------------------------|
|-------7-7---------10/11-9-|
|-9-9---5-5---7-7---8 /9--7-|
|-7-7---------5-5-----------|

|----------------------------|
|----------------------------|
|----------------------------|
|-------7-7------------------|   x2
|-9-9---5-5---7-7---5-7--7/9-|
|-7-7---------5-5---3-5--5/7-|

|---------------------------------|
|---------------------------------|
|---------------------------------|
|---------------------------------|
|-9-9--9-9/12-11-9--9-12----(12)\-|
|-7-7--7-7/10-9--7--7-10----(10)\-|

|---------------------------------------------------|
|---------------------------------------------------|
|-------------------------------------------------7-|
|-2---------------5---------------7---------------7-|   x2
|-0-0-0-0-0-0-0-0-3-0-0-0-0-0-0-0-5-0-0-0-0-0-0-0-5-|
|---------------------------------------------------|

|-------|
|-------|
|-------|
|-------|
|-3-2-0-|
|-------|

|-----------------------------------------------------|
|-----------------------------------------------------|
|--------------5------------7------------7------------|
|-2--2-2--2--2-5--2-2--2--2-7--2-2--2--2-7------------|   x2
|-0--0-0--0--0-3--0-0--0--0-5--0-0--0--0-5--0-0-3-2-0-|
|-----------------------------------------------------|

|--------------------------------------------------|
|--------------------------------------------------|
|-------4f-2---------4f-0---------4f-2-----------7-|
|------------------------------------------------7-|   x4
|-0-3-0--------0-3-0--------0-3-0--------3-2-0---5-|
|----------------------------------------------3---|

By Philippe Vanier  (14 years)

Tell me your comment   msn: Black_Death33@hotmail.com
comments
We did not receive enough feedback on this tab! Please rate:
print report bad tab
1 2 3 4 5
1 comment total.
0 reply
LaLaLaLoopy 447 wrote on January 7 2009, 08:38 pm

hey Philippe , nice tab,sounds pretty accurate to me,thanks bro,,,think ill press print

I want to post or [tab]
guest
You may want to rate the tab now too:
select rating
Please do not post tabs as comments. Select "correction" instead!