Oops, an error
Loading. Please wait.

Love And Affection Tab

version 1
version 1

Whole song

Interactive

7,414 views 12 this week
1 commentread comment
1 2 3 4 5
x 4
add to favorites
×
Save as Personal and add changes to this tab that will be seen only by you. Learn more ›
×
You can save this tab as Personal to edit and correct it or add notes. All changes will be seen only by you. Learn more »
save as personal
new!
launch autoscroll
font size
0
reset
how to read this tab
guitar tuner
Autoscroll
slow
fast
+/-
esc
set tempo
stop
Author
-----------------------------------------------------------------------------
                             Love and Affection- Def Leppard
-----------------------------------------------------------------------------
Tabbed by: Eric Czerwinski  
Email:  teamski1@hotmail.com

Tuning: Normal

Chords:

Whichever sounds good to you:
A: 002220 or 577655
D: 000232 or 557775
G: 320033 or 355433

Intro:

e|------------5---3---2-------------5---3---2---------------------------|
B|------------5---3---3-------------5---3---3---------------------------|
G|------------6---4---2-------------6---4---2---------------------------|
D|------------7---5-----------------7---5-------------------------------|
A|--5--4------7---5--------5---4----7---5--------5---4-0----------------|
E|-3--3--0----5---3------3---3---0--5---3------3---3--------------------|

(palmed)A                                  D
You got the fire, baby, I got the heat, can you handle it?
        A                                  D
I got the time, babe, you got the need, oh surrender it
        G                                       A                       
Oh, it's a passion crime with a danger sign, oh, can you handle it?
        G                                       A                     D
You're just another girl, I'm just another man, it's just another night


Chorus:

Don't gimme love and affection or what you think it should be
    A                         D                         
e|-----------------------------------------------------------------------|
B|----------0--------0-----------0-----0------0--------------------------|
G|--------2--------2---2-------2---2-----2------2------------------------|
D|------2--------2-----------0-------0-----0------0----------------------|
A|----0--------0---------------------------------------------------------|
E|-----------------------------------------------------------------------|

Don't gimme love, the wrong reason yeah, it don't matter to me
    A                          D                         
e|-----------------------------------------------------------------------|
B|----------0--------0------------0-----0--------------------------------|
G|--------2--------2---2--------2---2-----2------------------------------|
D|------2--------2------------0-------0-----0----------------------------|
A|----0--------0-------------------------------------------0-5-0-4-0-----|
E|-----------------------------------------------------------------------|

(palmed)A                                 D
I got the heart, babe, you got the beat, take a chance on me
        A                                 D
We got the night babe  We got the dream, oh imagine it
        G                                     A
Oh, it's a passion crime with a danger sign Oh, can you handle it?
        G                                     A                       D
You're just another girl, I'm just another man, it's just another night


Chorus:

Don't gimme love and affection or what you think it should be
    A                         D                         
e|-----------------------------------------------------------------------|
B|----------0--------0-----------0-----0------0--------------------------|
G|--------2--------2---2-------2---2-----2------2------------------------|
D|------2--------2-----------0-------0-----0------0----------------------|
A|----0--------0---------------------------------------------------------|
E|-----------------------------------------------------------------------|

Don't gimme love, the wrong reason yeah, it don't matter to me
    A                         D                         
e|-----------------------------------------------------------------------|
B|----------0--------0-----------0-----0------0--------------------------|
G|--------2--------2---2-------2---2-----2------2------------------------|
D|------2--------2-----------0-------0-----0------0----------------------|
A|----0--------0---------------------------------------------------------|
E|-----------------------------------------------------------------------|

I don't need your understandin' Oh babe can't you understand me
    A                         D                         
e|-----------------------------------------------------------------------|
B|----------0--------0-----------0-----0------0--------------------------|
G|--------2--------2---2-------2---2-----2------2------------------------|
D|------2--------2-----------0-------0-----0------0----------------------|
A|----0--------0---------------------------------------------------------|
E|-----------------------------------------------------------------------|

    G   D   A   G   D   A

Solo:  (As best I can)

e|-12-12-----------------------------------------------------------------|
B|-------10-10/-12/-14-12-12-14p-12-14p-12-------12-12-14p-12-14p-12-----|
G|-----------------------------------------11/-14------------------------|
D|-----------------------------------------------------------------------|
A|-----------------------------------------------------------------------|
E|-----------------------------------------------------------------------|

e|-12-12-12\-10-10\-15---------------------------------------------------|
B|-----------------------------------------------------------------------|
G|-----------------------------------------------------------------------|
D|-----------------------------------------------------------------------|
A|-----------------------------------------------------------------------|
E|-----------------------------------------------------------------------|


        G                                   A
It's a passion play in a diff'rent way oh can you handle it, yeah
        G                                   A                         D
You're just another girl, I'm just another man, it's just another night


Chorus: (as above)

Don't gimme love and affection or what you think it should be

Don't gimme love, the wrong reason, yeah, it don't matter to me

I don't need your understandin'Oh babe can't you understand me?

      G                                         A                            
I don't need, don't need your heart, no understandin', no affection, 
      D
don't give me love


(repeating)
e|--12-10-------12-12-10------------------------------------------------|
B|--------12-10----------12-10/-12--------------------------------------|
G|----------------------------------------------------------------------|
D|----------------------------------------------------------------------|
A|----------------------------------------------------------------------|
E|----------------------------------------------------------------------|
And affection
(And affection)
Don't gimme love
(I don't need it)
Gimme what you got
Oh
(Don't give me love)
Love
(I don't need the wrong reason)
The wrong reason
I don't need it
(I don't need)
Don't need it
Oh babe
(I don't need)
Need
(I don't need your understandin')
our understandin'
(I don't need)
Oh
(Don't give me love)
(I don't need)
And affection
Give me all you got
Give it all, give it all
Give it all
(Don't give me love)
(I don't need)
The wrong reason 


| /  slide up
| \  slide down
| h  hammer-on
| p  pull-off
| ~  vibrato
| +  harmonic
| x  Mute note
===============================================================================
Suggest correction
comments
print report bad tab
1 comment total.
0 reply
kmachman 297 Jul 10, 2015 11:34 AM

Lack of accuracy. When the first 5 notes are so far off that gives me now reason to even go further into it...

guest
You may want to rate the tab now too:
select rating
Wanna post a correction for this tab? Suggest correction