Oops, an error
Loading. Please wait.

Love Bites bass

version 1
version 1

Whole song

4,565 views 6 this week
1 commentread comment
1 2 3 4 5
x 3
add to favorites
×
Save as Personal and add changes to this tab that will be seen only by you. Learn more ›
×
You can save this tab as Personal to edit and correct it or add notes. All changes will be seen only by you. Learn more »
launch autoscroll
font size
0
reset
guitar tuner
backing track
0:00
0:00
edit
Autoscroll
slow
fast
+/-
esc
set tempo
stop
love bites
def leppard
tabbed by saturns_bassman
B-E-A-D-G


g------------------------|------------------------|------------------------|
d------------------------|--5---5-----5-----------|------------------------|
a--5---5-----5-----------|------------------------|--3---3-----3-----------|
e------------------------|----3---3-----3---------|------------------------|
b----3---3-----3---------|------------------------|----1---1-----1---------|

------------------------|------------------------|------------------------|
--3---3-----3-----------|------------------------|--5---5-----5-----------|
------------------------|--5---5-----5-----------|------------------------|
----1---1-----1---------|------------------------|----3---3-----3---------|
------------------------|----3---3-----3---------|------------------------|


------------------------|------------------------|--------------------|
------------------------|--3---3-----3-----------|--------------------|
--3---3-----3-----------|------------------------|--5------------5----|
------------------------|----1---1-----1---------|--------------------|
----1---1-----1---------|------------------------|--------------------|


--------------------|------------------------|------------------------|
--------------------|------------------------|--5---5-----5-----------|
--------------------|--5---5-----5-----------|------------------------|
--1------------1----|------------------------|----3---3-----3---------|
--------------------|----3---3-----3---------|------------------------|


                                                                        
------------------------|------------------------|---------------------|
------------------------|--3---3-----3-----------|---------------------|
--3---3-----3-----------|------------------------|--6-------------6----|
------------------------|----1---1-----1---------|--------------6------|
----1---1-----1---------|------------------------|---------------------|


                                                                         
--------------------|-----------------------|---------------------------|
--------------------|------------------3----|---------------------------|
--------------------|-----------------------|--1--1--1---1-1--1--1------|
--4------------3----|--1------1-1----1------|----------1-----------4----|
--------------------|-----------------------|---------------------------|


                                                                                
---------------------------|-------------------------|---------------------|
---------------------------|-------------------------|----------------3----|
--6---6--6---6-6------6----|-------------------------|---------------------|
----6------6--------6------|--4--4--4--4-4----4-3----|--1--1--1--1-1--1----|
---------------------------|-------------------------|---------------------|


                                                      
----------------------------|------------------------|
----------------------------|------------------------|
--1--1--1---1-1--1--1-1-1---|--3--3--3---------------|
----------1-----------------|-------------4---4-4----|
----------------------------|------------------------|


                                                                                
--------------------------|------------------------|-----------------------|
--------------------------|------------------------|-----------------------|
-------------1-----1-1--1-|--3--3--3---------------|---------1-1----1-1--1-|
--1--1--1--------1--------|-------------4---4-4----|--1--1--1-----1--------|
--------------------------|------------------------|-----------------------|


                                                                       
----------------------|----------------------|------------------------|
----------------------|----------------------|------------------------|
--3------3------------|-----------1---1--1---|--5---5-----5-----------|
------------4-----4---|--1-------------------|------------------------|
----------------------|----------------------|----3---3-----3---------|


                                                                           
------------------------|------------------------|------------------------|
--5---5-----5-----------|------------------------|--3---3-----3-----------|
------------------------|--3---3-----3-----------|------------------------|
----3---3-----3---------|------------------------|----1---1-----1---------|
------------------------|----1---1-----1---------|------------------------|


                                                                           
------------------------|------------------------|------------------------|
------------------------|--5---5-----5-----------|------------------------|
--5---5-----5-----------|------------------------|--3---3-----3-----------|
------------------------|----3---3-----3---------|------------------------|
----3---3-----3---------|------------------------|----1---1-----1---------|


                                                                           
------------------------|------------------------|------------------------|
--3---3-----3-----------|------------------------|--5---5-----5-----------|
------------------------|--5---5-----5-----------|------------------------|
----1---1-----1---------|------------------------|----3---3-----3---------|
------------------------|----3---3-----3---------|------------------------|


                                                                        
------------------------|------------------------|---------------------|
------------------------|--3---3-----3-----------|---------------------|
--3---3-----3-----------|------------------------|--6-------------6----|
------------------------|----1---1-----1---------|--------------6------|
----1---1-----1---------|------------------------|---------------------|


                                                                                
-------------------------|-------------------------|-----------------------|
-------------------------|-------------------------|-----------------------|
-------------------------|--------------------3----|--1--1-1-1---1-1--1----|
--4--4--4--4-4----4-3----|--1--1--1--1-1----1------|-----------1----1------|
-------------------------|-------------------------|-----------------------|


                                                                             
------------------------|--------------------------|-----------------------|
------------------------|--------------------------|-----------------------|
--3--3--3---------------|-------------1-----1-1--1-|--3--3--3--------------|
-------------4---4-4----|--1--1--1--------1--------|------------4---4-4----|
------------------------|--------------------------|-----------------------|


                                                                          
---------------------------|----------------------|----------------------|
---------------------------|----------------------|----------------------|
-------------1-1----1-1--1-|--3------3------------|-----------1---1--1---|
--1--1--1---------1--------|------------4-----4---|--1-------------------|
---------------------------|----------------------|----------------------|


                                                                     
----------------------|----------------------|----------------------|
----------------------|----------------------|----------------------|
--5---5------5--5-----|----------------------|--3---3------3--3-----|
----------------------|--3---3------3--3-----|----------------------|
----------------------|----------------------|----------------------|


                                                                             
----------------------|-------------------------|-------------------5------|
----------------------|-------------------------|--------------------------|
----------------------|--5--5--5--5-5----5-5----|--------------------------|
--1---1------1--1-----|-------------------------|--3--3--3--3-3---3---3--3-|
----------------------|-------------------------|--------------------------|


                                                                              
---------------------------|---------------------------|-------------------|
---------------------------|---------3-----------------|-------------------|
--3--3--3--3-3--3----3-3---|---------------------------|--6-----------6----|
-------------------3-------|--1--1-1----1-1--1--1--1---|------------6------|
---------------------------|---------------------------|-------------------|


                                                                         
--------------------|-----------------------|---------------------------|
--------------------|------------------3----|---------------------------|
--------------------|-----------------------|--1--1--1---1-1--1--1------|
--4------------3----|--1------1-1----1------|----------1-----------4----|
--------------------|-----------------------|---------------------------|


                                                                                
---------------------------|-----------------------------------------------|
---------------------------|-------------------------|----------------3----|
--6---6--6---6-6------6----|-------------------------|---------------------|
----6------6--------6------|--4--4--4--4-4----4-3----|--1--1--1--1---1-----|
---------------------------|-------------------------|---------------------|


                                                      
----------------------------|------------------------|
----------------------------|------------------------|
--1--1--1---1-1--1--1-1-1---|--3--3--3---------------|
----------1-----------------|-------------4---4-4----|
----------------------------|------------------------|


                                                    
--------------------------|------------------------|
--------------------------|------------------------|
-------------1-----1-1--1-|--3--3--3---------------|
--1--1--1--------1--------|-------------4---4-4----|
--------------------------|------------------------|


                                                      
----------------------------|------------------------|
----------------------------|------------------------|
----------------------------|--3--3--3---------------|
--1-1---1-----1-1-1-1-1-1-1-|-------------4---4-4----|
----------------------------|------------------------|


                                                                                
--------------------------|------------------------|-----------------------|
--------------------------|------------------------|-----------------------|
-------------1-----1-1--1-|--3--3--3---------------|---------1-1----1-1--1-|
--1--1--1--------1--------|-------------4---4-4----|--1--1--1-----1--------|
--------------------------|------------------------|-----------------------|


                                                                     
----------------------|----------------------|----------------------|
----------------------|----------------------|----------------------|
--3------3------------|-----------1---1--1---|--5---5------5--5-----|
------------4-----4---|--1-------------------|----------------------|
----------------------|----------------------|----------------------|


                                                                     
----------------------|----------------------|----------------------|
----------------------|----------------------|----------------------|
--5---5------5--5-----|--5---5------5--5-----|--5---5------5--5-----|
----------------------|----------------------|----------------------|
----------------------|----------------------|----------------------|


                                                                     
----------------------|----------------------|----------------------|
----------------------|----------------------|----------------------|
--5---5------5--5-----|--5---5------5--5-----|--5---5------5--5-----|
----------------------|----------------------|----------------------|
----------------------|----------------------|----------------------|


                        
----------------------||
----------------------||
--5---5------5--5-----||
----------------------||
----------------------||

            
            
Suggest correction
Creating personal tab
Creating personal tab
You can edit any tab online and save it as your Personal.

You can edit, replace or remove any tab part or add personal notes – all changes will be seen only by you.

Personal tabs can be accessed anytime from any device, even offline.
Learn more »
Give kudos to tab author, rate the tab!
1 2 3 4 5
comments
print report bad tab
1 comment total.
0 reply
jdl2112 10 Nov 13, 2016 08:11 PM

Hey Saturns!

Can you do me a really big favour????

I'm really new to this bass thing...and I just recently got a 5 string bass which I LOVE and try hard to find songs to play. Well, I started playing the bass at 48 because I wanted to learn all the Leppard songs...and here's Love Bites in Bass 5!!!! Bless you!

So, because I'm as green as a pea at this, I'm having trouble following along with the song. Can you please put some time signature points every other line or something? Like

1:14

Then down more

1:43

I don't know what you call those but, I'm just looking for some kind of guide while I try to keep my fingers on 5 strings!

I actually do this with a lot of tabs I get and sometimes I even write the words that start the line like this for example from Livin on a Prayer:

[1st Pre-Chorus] she says we gotta hold on… 1:16

G|------------------------|----------------------|-----------------------|
D|------------------------|----------------------|-----------------------|
A|-3--3--3--5--5--5--5--5-|-5--5--5--5--7--7--7\-|-3--3--3--5--5--5--5---|
E|------------------------|----------------------|---------------------5-|
Would there be any chance you could put some time lines on just every 2nd or 3rd stanza? (Is that the right word...Stanza?)

If not, and it's a ton of work, I TOTALLY understand and still thank you for tabbing this!

Jay :-)

guest
You may want to rate the tab now too:
select rating
Wanna post a correction for this tab? Suggest correction