Oops, an error
Loading. Please wait.

Love Bites tab

version 2
version 2

Whole song

6,776 views 117 this week
3 commentsread comments
1 2 3 4 5
x 7
add to favorites
×
Save as Personal and add changes to this tab that will be seen only by you. Learn more ›
×
You can save this tab as Personal to edit and correct it or add notes. All changes will be seen only by you. Learn more »
launch autoscroll
font size
0
reset
how to read this tab
guitar tuner
backing track
0:00
0:00
edit
Autoscroll
slow
fast
+/-
esc
set tempo
stop
Song Name: Love Bites

Band Name: Def Leppard

Tuning: Standard Tuning



This is it livin' with the saints...the challenge.....with weights

Intro:

e|--------------------------------------|
B|----6-------3----------6--------------|
G|----5-------3--------3----------0-----|
D|--7----------------5----------3-------|
A|5---------5------3----------3-----3---|
E|--------3-----------------1-----------|

Verse:

When you make love      do you look in the mirror?   Who do you think of?
e|------------------------------------------------------------------------------|
B|--------------------6--------------------------3----------------------------6-|
G|--------------------5--------------------------3--------------------------3---|
D|------------------7-----------------------------------------------------5-----|
A|----------------5----------------------------5------------------------3-------|
E|-------------------------------------------3----------------------------------|

does he look like me?     Do you tell lies    and say that it's forever?
e|----------------------------------------------------------------------------|
B|------------------------------------------6-----------------------3---------|
G|-------------------0----------------------5-----------------------3---------|
D|------------------3---------------------7-----------------------------------|
A|-----------------3--3-----------------5-------------------------5-----------|
E|----------------1---------------------------------------------3-------------|

Do you think twice       or just touch 'n' see?
e|----------------------------------------------------------------------------|
B|-------------------6--------------------------------------------------------|
G|-----------------3--------------------------------0-------------------------|
D|---------------5--------------------------------3---3-----------------------|
A|-------------3--------------------------------3-----------------------------|
E|--------------------------------------------1-------------------------------|

Ooh babe     ooh yeah

1st Guitar
e|------10~~-------8~-------|
B|--------------------10~---|
G|--------------------------|
D|--------------------------|
A|--------------------------|
E|--------------------------|

2nd Guitar
e|--------------------------|
B|--------------------------|
G|-----7--------------------|
D|-----7---------10---------|
A|-----5---------8----------|
E|--------------------------|

When you're alone,           do you let go?      Are you wild 'n' willin'
e|----------------------------------------------------------------------------|
B|--------------------6------------------------3----------------------------6-|
G|--------------------5------------------------3--------------------------3---|
D|------------------7---------------------------------------------------5-----|
A|----------------5--------------------------5------------------------3-------|
E|-----------------------------------------3----------------------------------|

or is it just for show?        Ooh c'mon
e|---------------------------------------------------------------------------|
B|---------------------------------------------------------------------------|
G|------------------------0--------------------------------------------------|
D|----------------------3----------------------------------------------------|
A|--------------------3-----3------------------------------------------------|
E|------------------1--------------------------------------------------------|

Pre-chorus:

   I don't wanna touch you too much baby

1st Guitar
e|-------------------------------------6--4--3---4~---------------------------|
B|6----------------------------------------------4~---9-----------------------|
G|8---------------------------------------------------10----------------------|
D|8----------------------------------6--6--6--6-------10----------------------|
A|----------------------------------------------------------------------------|
E|----------------------------------------------------------------------------|

2nd Guitar
e|---------------------------------------------------------------------------|
B|---------------------------------------------------------------------------|
G|8--------------------------------------------------------------------------|
D|8---------------------------------6-----------------3----------------------|
A|6---------------------------------6-----------------3----------------------|
E|----------------------------------4-----------------1----------------------|

'Cos making love to you might drive me crazy

1st Guitar
e|-----------------------------------------6---8---6---6~--------------------|
B|-----------------------------------------------------6~--------------------|
G|---------------------------------------------------------------------------|
D|---------------------------------------8---8---8---8-----------------------|
A|---------------------------------------------------------------------------|
E|---------------------------------------------------------------------------|

2nd Guitar
e|---------------------------------------------------------------------------|
B|---------------------------------------------------------------------------|
G|--------------------------------------3------------------------------------|
D|--------------------------------------3------------------------------------|
A|--------------------------------------1------------------------------------|
E|---------------------------------------------------------4fb---------------|

   I know you think that love is the way you make it

1st GuitAR
e|---------------------------------------------------6---4--3---4~-----------|
B|-6------------------------------------------------------------4~-----------|
G|-8---------8---------------------------------------------------------------|
D|-8---------8-------------------------------------6---6---6--6--------------|
A|---------------------------------------------------------------------------|
E|---------------------------------------------------------------------------|

2nd Guitar
e|-----------------------------------------------------------------------------|
B|-----------------------------------------------------------------------------|
G|-8---------------------------------------------------------------------------|
D|-8----------------------------------------------6-------------------6-------6|
A|-6----------------------------------------------6-----------------6-------6--|
E|------------------------------------------------4---------------4-----4-3----|

   So I don't wanna be there when you decide to break it              NOOOOOO!!!!

1st Guitar
e|------------------------------------------------------6--8--6--6~----------|
B|6--------------------------------------------------------------6~----------|
G|5--------------------------------------------------------------------------|
D|3----------------------------------------------------8--8--8--8------------|
A|---------------------------------------------------------------------------|
E|---------------------------------------------------------------------------|

2nd Guitar
e|---------------------------------------------------------------------------|
B|---------------------------------------------------------------------------|
G|----------------------------------------------------3----------------------|
D|3---------------------------------------------------3----------------------|
A|3---------------------------------------------------1----------------------|
E|1--------------------------------------------------------------------------|


Chorus:

  Love bites           love bleeds                   It's bringin' me to my knees

1st Guitar
e|------------10---11~-----------------10---11~------10---11~------11---10~--|
B|----------8----8-------------------9----9----------------------8----8------|
G|-------------------------------------------------10--10--------------------|
D|---------------------------------------------------------------------------|
A|---------------------------------------------------------------------------|
E|---------------------------------------------------------------------------|

2nd Guitar
e|---------------------------------------------------------------------------|
B|---------------------------------------------------------------------------|
G|---------5-----------------------------------------------------3-----------|
D|---------5------------------------6--------------3-------------3-----------|
A|---------3------------------------6--------------3-------------1-----------|
E|----------------------------------4--------------1-------------------------|

Love lives               love dies                      It's no surprise

1st Guitar
e|------------10---11~-----------------10---11~------10---11~------11---10~--|
B|----------8----8-------------------9----9----------------------8----8------|
G|-------------------------------------------------10--10--------------------|
D|---------------------------------------------------------------------------|
A|---------------------------------------------------------------------------|
E|---------------------------------------------------------------------------|

2nd Guitar
e|---------------------------------------------------------------------------|
B|---------------------------------------------------------------------------|
G|---------5-----------------------------------------------------3-----------|
D|---------5------------------------6--------------3-------------3-----------|
A|---------3------------------------6--------------3-------------1-----------|
E|----------------------------------4--------------1-------------------------|

Love begs     love pleads               It's what I need

1st Guitar
e|---------------------------------------------------------------------------|
B|-------------------------------------------------------6-------------------|
G|-------------------------------------------------------5-------------------|
D|--------5------------------5------5--------------------3-------------------|
A|------3------------------3------3------------------------------------------|
E|----4------------------1------1--------------------------------------------|

2nd Guitar
e|---------------------------------------------------------------------------|
B|---------------------------------------------------------------------------|
G|----5--------------------------------------------------3-------------------|
D|----5-----------------6-------3------------------------3-------------------|
A|----3-----------------6-------3------------------------1-------------------|
E|----------------------4-------1--------------------------------------------|


Bridge:(Both Guitars)

e|---------------------------------------------------------------------------|
B|6-5--------------3----------6------5-------------------1-------------------|
G|----5---7--------3--------3------3-----------0-------0---------------------|
D|------7------------------------5-----------3-------3-----------------------|
A|---------------5-----3--5----------------3----3--3-------------------------|
E|-------------3-------------------------1-----------------------------------|


Verse:

When I'm with you          are you somewhere else?     Am I gettin' thru

e|----------------------------------------------------------------------------------|
B|---------------6-5--------------------------------3-----------------------6------5|
G|-------------------5---7--------------------------3---------------------3------3--|
D|---------------------7-------------------------------------------------------5----|
A|------------------------------------------------5------------------3--5-----------|
E|-----------------------------------------------3----------------------------------|

or do you please yourself?

e|-----------------------------------------|
B|------------------------------------1----|
G|--------------------------0-------0------|
D|------------------------3-------3--------|
A|----------------------3----3--3----------|
E|--------------------1--------------------|

When you wake up             will you walk out?       It can't be love

e|----------------------------------------------------------------------------------|
B|---------------6-5--------------------------------3-----------------------6------5|
G|-------------------5---7--------------------------3---------------------3------3--|
D|---------------------7-------------------------------------------------------5----|
A|------------------------------------------------5------------------3--5-----------|
E|----------------------------------------------3-----------------------------------|

if you throw it about                      Ooh babe

e|----------------------------------------|
B|----------------------------------------|
G|--------------------------0-------------|
D|------------------------3---------------|
A|----------------------3----3------------|
E|--------------------1-------------------|


Pre-chorus:

    I don't wanna touch you to much baby

1st GuitAR
e|---------------------------------------------------6---4--3---4~-----------|
B|-6------------------------------------------------------------4~-----------|
G|-8---------8---------------------------------------------------------------|
D|-8---------8-------------------------------------6---6---6--6--------------|
A|---------------------------------------------------------------------------|
E|---------------------------------------------------------------------------|

2nd Guitar
e|-----------------------------------------------------------------------------|
B|-----------------------------------------------------------------------------|
G|-8---------------------------------------------------------------------------|
D|-8----------------------------------------------6-------------------6-------6|
A|-6----------------------------------------------6-----------------6-------6--|
E|------------------------------------------------4---------------4-----4-3----|

   Cause makin love to you might drive me crazy                     OOOOOHHHHH!!!!

1st Guitar
e|------------------------------------------------------6--8--6--6~----------|
B|6--------------------------------------------------------------6~----------|
G|5--------------------------------------------------------------------------|
D|3----------------------------------------------------8--8--8--8------------|
A|---------------------------------------------------------------------------|
E|---------------------------------------------------------------------------|

2nd Guitar
e|---------------------------------------------------------------------------|
B|---------------------------------------------------------------------------|
G|----------------------------------------------------3----------------------|
D|3---------------------------------------------------3----------------------|
A|3---------------------------------------------------1----------------------|
E|1--------------------------------------------------------------------------|

Chorus:

  Love bites           love bleeds                   It's bringin' me to my knees

1st Guitar
e|------------10---11~-----------------10---11~------10---11~------11---10~--|
B|----------8----8-------------------9----9----------------------8----8------|
G|-------------------------------------------------10--10--------------------|
D|---------------------------------------------------------------------------|
A|---------------------------------------------------------------------------|
E|---------------------------------------------------------------------------|

2nd Guitar
e|---------------------------------------------------------------------------|
B|---------------------------------------------------------------------------|
G|---------5-----------------------------------------------------3-----------|
D|---------5------------------------6--------------3-------------3-----------|
A|---------3------------------------6--------------3-------------1-----------|
E|----------------------------------4--------------1-------------------------|

Love lives               love dies                      It's no surprise

1st Guitar
e|------------10---11~-----------------10---11~------10---11~------11---10\--|
B|----------8----8-------------------9----9----------------------8----8------|
G|-------------------------------------------------10--10--------------------|
D|---------------------------------------------------------------------------|
A|---------------------------------------------------------------------------|
E|---------------------------------------------------------------------------|

2nd Guitar
e|---------------------------------------------------------------------------|
B|---------------------------------------------------------------------------|
G|---------5-----------------------------------------------------3-----------|
D|---------5------------------------6--------------3-------------3-----------|
A|---------3------------------------6--------------3-------------1-----------|
E|----------------------------------4--------------1-------------------------|

Love begs     love pleads               It's what I need

1st Guitar
e|---------------------------------------------------------------------------|
B|-------------------------------------------------------6-------------------|
G|-------------------------------------------------------5-------------------|
D|--------5------------------5------5--------------------3-------------------|
A|------3------------------3------3------------------------------------------|
E|----4------------------1------1--------------------------------------------|

2nd Guitar
e|---------------------------------------------------------------------------|
B|---------------------------------------------------------------------------|
G|----5--------------------------------------------------3-------------------|
D|----5-----------------6-------3------------------------3-------------------|
A|----3-----------------6-------3------------------------1-------------------|
E|----------------------4-------1--------------------------------------------|


SOLO:

e|---------------------------------------------------------------------------------|
B|-------------------------------------------6--5--------------------10-10-10/11~--|
G|5-5-5/7-7------10\7---2/3------5\----------5----5---5/7---------10---------------|
D|---------------10\7------------5\-----------------7----------12------------------|
A|-----------------------------------5--5------------------------------------------|
E|---------------------------------------------------------------------------------|

e|----8-8-8-8--8-10-8--8-10-8--8-10-8---13-13-13--12\-10--------------------|
B|--8----------8-10-8--8-10-8--8-10-8---13-13-13--13\-10--------------------|
G|9-------------------------------------------------------------------------|
D|---------------------------------------------------------3----------------|
A|---------------------------------------------------------3----------------|
E|---------------------------------------------------------1----------------|

For the back-up guitar just play this throught he whole solo.

e|-----------------|
B|---------6-5-----|
G|-7-5---------5---|
D|-----7-7-------7-|
A|-----------------|
E|-----------------|


Pre-chorus:


 I don't wanna touch you too much baby

1st Guitar
e|-------------------------------------6--4--3---4~---------------------------|
B|6----------------------------------------------4~---9-----------------------|
G|8---------------------------------------------------10----------------------|
D|8----------------------------------6--6--6--6-------10----------------------|
A|----------------------------------------------------------------------------|
E|----------------------------------------------------------------------------|

2nd Guitar
e|---------------------------------------------------------------------------|
B|---------------------------------------------------------------------------|
G|8--------------------------------------------------------------------------|
D|8---------------------------------6-----------------3----------------------|
A|6---------------------------------6-----------------3----------------------|
E|----------------------------------4-----------------1----------------------|

'Cos making love to you might drive me crazy

1st Guitar
e|-----------------------------------------6---8---6---6~--------------------|
B|-----------------------------------------------------6~--------------------|
G|---------------------------------------------------------------------------|
D|---------------------------------------8---8---8---8-----------------------|
A|---------------------------------------------------------------------------|
E|---------------------------------------------------------------------------|

2nd Guitar
e|---------------------------------------------------------------------------|
B|---------------------------------------------------------------------------|
G|--------------------------------------3------------------------------------|
D|--------------------------------------3------------------------------------|
A|--------------------------------------1------------------------------------|
E|---------------------------------------------------------4fb---------------|

   I know you think that love is the way you make it

1st GuitAR
e|---------------------------------------------------6---4--3---4~-----------|
B|-6------------------------------------------------------------4~-----------|
G|-8---------8---------------------------------------------------------------|
D|-8---------8-------------------------------------6---6---6--6--------------|
A|---------------------------------------------------------------------------|
E|---------------------------------------------------------------------------|

2nd Guitar
e|-----------------------------------------------------------------------------|
B|-----------------------------------------------------------------------------|
G|-8---------------------------------------------------------------------------|
D|-8----------------------------------------------6-------------------6-------6|
A|-6----------------------------------------------6-----------------6-------6--|
E|------------------------------------------------4---------------4-----4-3----|

   So I don't wanna be there when you decide to break it              NOOOOOO!!!!

1st Guitar
e|------------------------------------------------------6--8--6--6~----------|
B|6--------------------------------------------------------------6~----------|
G|5--------------------------------------------------------------------------|
D|3----------------------------------------------------8--8--8--8------------|
A|---------------------------------------------------------------------------|
E|---------------------------------------------------------------------------|

2nd Guitar
e|---------------------------------------------------------------------------|
B|---------------------------------------------------------------------------|
G|----------------------------------------------------3----------------------|
D|3---------------------------------------------------3----------------------|
A|3---------------------------------------------------1----------------------|
E|1--------------------------------------------------------------------------|


Chorus:

  Love bites           love bleeds                   It's bringin' me to my knees

1st Guitar
e|------------10---11~-----------------10---11~------10---11~------11---10~--|
B|----------8----8-------------------9----9----------------------8----8------|
G|-------------------------------------------------10--10--------------------|
D|---------------------------------------------------------------------------|
A|---------------------------------------------------------------------------|
E|---------------------------------------------------------------------------|

2nd Guitar
e|---------------------------------------------------------------------------|
B|---------------------------------------------------------------------------|
G|---------5-----------------------------------------------------3-----------|
D|---------5------------------------6--------------3-------------3-----------|
A|---------3------------------------6--------------3-------------1-----------|
E|----------------------------------4--------------1-------------------------|


Love lives               love dies                           Ohhhhhh

1st Guitar
e|------------10---11~-----------------10---11~-------------|
B|----------8----8-------------------9----9-----------------|
G|----------------------------------------------------------|
D|------------------------------------------------3--3----3-|
A|------------------------------------------------3--3----3-|
E|------------------------------------------------1--1----1-|

2nd Guitar
e|----------------------------------------------------------|
B|----------------------------------------------------------|
G|---------5----------------------------------------------3-|
D|---------5------------------------6-------------3---3---3-|
A|---------3------------------------6-------------3---3---1-|
E|----------------------------------4-------------1---1-----|


Love bites           love bleeds                   It's bringin' me to my knees

1st Guitar
e|------------10---11~-----------------10---11~------10---11~------11-10-8---------|
B|----------8----8-------------------9----9--------------------------------11-11---|
G|-------------------------------------------------10--10--------------------------|
D|---------------------------------------------------------------------------------|
A|---------------------------------------------------------------------------------|
E|---------------------------------------------------------------------------------|

2nd Guitar
e|---------------------------------------------------------------------------|
B|---------------------------------------------------------------------------|
G|---------5-----------------------------------------------------3-----------|
D|---------5------------------------6--------------3-------------3-----------|
A|---------3------------------------6--------------3-------------1-----------|
E|----------------------------------4--------------1-------------------------|

Love lives               love dies                      It's no surprise

1st Guitar
e|------------10---11~-----------------10---11~------10---11~------11---10\--|
B|----------8----8-------------------9----9----------------------8----8------|
G|-------------------------------------------------10--10--------------------|
D|---------------------------------------------------------------------------|
A|---------------------------------------------------------------------------|
E|---------------------------------------------------------------------------|

2nd Guitar
e|---------------------------------------------------------------------------|
B|---------------------------------------------------------------------------|
G|---------5-----------------------------------------------------3-----------|
D|---------5------------------------6--------------3-------------3-----------|
A|---------3------------------------6--------------3-------------1-----------|
E|----------------------------------4--------------1-------------------------|

Love begs     love pleads               It's what I need

1st Guitar
e|---------------------------------------------------------------------------|
B|-------------------------------------------------------6-------------------|
G|-------------------------------------------------------5-------------------|
D|--------5------------------5------5--------------------3-------------------|
A|------3------------------3------3------------------------------------------|
E|----4------------------1------1--------------------------------------------|

2nd Guitar
e|---------------------------------------------------------------------------|
B|---------------------------------------------------------------------------|
G|----5--------------------------------------------------3-------------------|
D|----5-----------------6-------3------------------------3-------------------|
A|----3-----------------6-------3------------------------1-------------------|
E|----------------------4-------1--------------------------------------------|


If you have love in your sights....watch out.....love bites......yes it does.....it will be hell.


Hope you like it. It took me a really long time to tab all this out so please rate and 
comment so I no how well I did.

************************************

| /   slide up
| \   slide down
| h   hammer-on
| p   pull-off
| ~   vibrato
| +   harmonic
| x   Mute note
| b   Bend
| pb  Pre-bend
| br  Bend release
| pbr Pre-bend release
| brb Bend release bend

************************************
Suggest correction
Creating personal tab
Creating personal tab
You can edit any tab online and save it as your Personal.

You can edit, replace or remove any tab part or add personal notes – all changes will be seen only by you.

Personal tabs can be accessed anytime from any device, even offline.
Learn more »
comments
print report bad tab
3 comments total.
0 reply
godsofwar 10 Mar 31, 2012 05:06 PM

This is a really accurate tab. keep up the good work.

0 reply
eldemasiado 10 May 16, 2012 10:16 AM

Absolutely great!

0 reply
cdreid 10 Aug 10, 2017 01:07 PM

This is fantastic but holy shit the fingerings are weird/tough to get my head around

guest
You may want to rate the tab now too:
select rating
Wanna post a correction for this tab? Suggest correction