Oops, an error
Loading. Please wait.

Love Tab

version 1
version 1

Whole song

7,478 views 15 this week
no commentswrite comment
1 2 3 4 5
excellent!
x 6
add to favorites
launch autoscroll
font size
0
reset
how to read this tab
guitar tuner
Tab Pro tools
  • play this tab
  • loop segment
  • change instrument
  • show fretboard
  • metronome
×
Best way to learn
"Love"
Autoscroll
slow
fast
+/-
esc
set tempo
stop
Tuning
D# G# C# F# A# D#
=Has no Solo (yet)=
I first got the Cd because it was cheap and it was Def Lepp, but I didn't
know it was a new Cd. I learnt this by ear and think it's the best tab for
this song on the internet - there are probably a few minor mistakes.

"Love" by Def Leppard
Album: Songs from the Sparkle Lounge

Tuning: Down a half step.
Learn all a this and you should be able to play it through.

Eb|-1~-------------|----1---0-------|----1---0-------|----1---0-------|
Bb|-3~-------------|------------3---|------------3---|------------3---|
F#|-2~-------------|--2---2---2---2-|--2---2---2---2-|--2---2---2---2-|
C#|-0~-------------|0---------------|0---------------|0---------------|
G#|----------------|----------------|----------------|----------------|
Eb|----------------|----------------|----------------|----------------|

  |-1~---------------|
  |-3~---------------|
  |-2~---------------|
  |-0~---------------|
  |------------------|
  |------------------|

  |-------5-------5|-------5-------3|-------3-------1|---------4------|
  |-----6-------5--|-----5-------3--|-----3-------1--|-----3-------3--|
  |---7-------6----|---5-------4----|---3-------2----|---4---4---4---4|
  |-0-------0------|-0-------0------|-0-------0------|/6--------------|
  |----------------|----------------|----------------|----------------|
  |----------------|----------------|----------------|----------------|

  |---------3------|-1~-------------|-----1-------1--|-----1-------1--|
  |-----3-------3--|-3~-------------|---1---1---1----|----------------|
  |---3---3---3---3|-3~-------------|----------------|---3---3---2---2|
  |-5--------------|----------------|-3-------2-----2|-0-------0------|
  |----------------|----------------|----------------|----------------|
  |----------------|----------------|----------------|----------------|

  |-------------3--|-----1---0---3--|-----1-------1--|-----1-------1--|
  |-----3---------3|---1---1-------1|---1-------1----|----------------|
  |---3-------3----|-----------0----|---------2-----2|---3---3---2---2|
  |-5-----5-3------|-2--------------|-3-----3--------|-0-------0------|
  |----------------|----------------|----------------|----------------|
  |----------------|----------------|----------------|----------------|

  |-----3-------3--|-----1---0---3--|-----1---0------|---------3------|
  |---------------3|---1---1-------1|-------------3--|-----3-------3--|
  |---3-------3----|-----------0----|---2---2---2---2|---3---3---3----|
  |-5-----5-3------|-2--------------|-0--------------|-5--------------|
  |----------------|----------------|----------------|----------------|
  |----------------|----------------|----------------|----------------|

  |-----------1------|-----1-0--------|-----1---0------|---------3------|
  |-------1-------1--|-------------3-2|-3-----------3--|-----3-------3--|
  |---------3---3----|---------3-2----|---2---2---2---2|---3---3---3----|
  |-----3------------|---2------------|-0--------------|-5--------------|
  |-0-1-------------1|-0--------------|----------------|----------------|
  |------------------|----------------|----------------|----------------|

  |-----------1------|--------3-------|
  |-------1-------1--|----3-------3---|
  |---------3---3----|--3---3---3---6-|
  |-----3------------|----------------|
  |-0-1-------------0|-4--------------|
  |------------------|----------------|


  |-------5-------5|-------5-------3|-------3-------1|---------4------|
  |-----6-------5--|-----5-------3--|-----3-------1--|-----3-------3--|
  |---7-------6----|---5-------4----|---3-------2----|---4---4---4---4|
  |-0-------0------|-0-------0------|-0-------0------|/6--------------|
  |----------------|----------------|----------------|----------------|
  |----------------|----------------|----------------|----------------|

  |---------3------|-1~-------------|
  |-----3-------3--|-3~-------------|
  |---3---3---3---3|-3~-------------|
  |-5--------------|-3~-------------|
  |----------------|----------------|
  |----------------|----------------|


  |-----3-----3---4|-----3-----3----|-----3-----3----|-----1-----1----|
  |---4-----4------|---3-----3-----3|---3-----3-----3|---1-----1-----1|
  |-5-----5-----5--|-4-----4-----4--|-3-----3-----3--|-2-----2-----2--|
  |----------------|----------------|----------------|----------------|
  |----------------|----------------|----------------|----------------|
  |----------------|----------------|----------------|----------------|

  |-----1-----1----|-----4-----4----|-----3-----3----|---------1------|
  |---1-----1-----1|---3-----3-----3|---2-----2-----2|-----1-------1--|
  |-1-----1-----1--|-5-----5-----5--|-4-----4-----4--|---1---1---1---1|
  |----------------|----------------|----------------|-3--------------|
  |----------------|----------------|----------------|----------------|
  |----------------|----------------|----------------|----------------|

  |---------3------|
  |-----3-------3--|
  |---4---4---4---4| 
  |-5--------------|
  |----------------|
  |----------------|

Back to intro
comments
print report bad tab
I want to post or [tab]
guest
You may want to rate the tab now too:
select rating
Please do not post tabs as comments. Select "correction" instead!