Oops, an error
Loading. Please wait.

Nine Lives bass

version 1
version 1

Whole song

Interactive

923 views 3 this week
4 commentsread comments
1 2 3 4 5
1 last vote to show rating
add to favorites
×
Save as Personal and add changes to this tab that will be seen only by you. Learn more ›
×
You can save this tab as Personal to edit and correct it or add notes. All changes will be seen only by you. Learn more »
launch autoscroll
font size
0
reset
guitar tuner
backing track
0:00
0:00
edit
Autoscroll
slow
fast
+/-
esc
set tempo
stop
Author
Intro

bass starts at :05

G:----------------------------------------------|
D:----------------------------------------------|
A:--------------0-0-5---------------------------|
E:-0X7-10-0X7-5---------------------------------|

Verse

starts at "Are you tough enough?"

G:----------------------------------------------|
D:----------------------------------------------|
A:-----------5X8-0X8------5X8-0X8---------------|
E:-12\3-0X16---------0X16-----------------------|


Pre chorus

let the last 7 ring a little bit

G:----------------------------------------------|
D:----------------------------------------------|
A:-2222-4444-----5X8-0X8-2222-4444-----5X8-7X4--|
E:-----------2X8-------------------2X8----------|


Chorus

G:----------------------------------------------|
D:----------------------------------------------|
A:------2X8-0-4X8-0------2X8-0-4X8--------------|
E:-0X16-------------0X16------------------------|

then play verse,pre chorus,chorus

Solo

G:----------------------------------------------|
D:----------------------------------------------|
A:------5X8-0X8------5X8-0X8--------------------|
E:-0X16---------0X16----------------------------|

then play pre chorus,chorusx2

Outro

(..all you're gonna get I said all...)
G:----------------------------------------------|
D:----------------------------------------------|
A:-2X8-0-4X8-0------2X8--0--0-------------------|
E:-------------0X16-------------0-0-------------|


questions: dschulthies@yahoo.com

            
            
Suggest correction
Creating personal tab
Creating personal tab
You can edit any tab online and save it as your Personal.

You can edit, replace or remove any tab part or add personal notes – all changes will be seen only by you.

Personal tabs can be accessed anytime from any device, even offline.
Learn more »
Give kudos to tab author, rate the tab!
1 2 3 4 5
comments
print report bad tab
4 comments total. Showing first comments.
-1 reply
savjr707 10 Jul 26, 2008 01:37 PM

what's the legend, i don't get this

0 reply
hellrock 10 Sep 04, 2008 09:31 AM

a couple of the filler notes in fill notes arn't there but this definatly seems like the general idea. good tab

0 reply
hellrock 10 Sep 04, 2008 09:32 AM

i meant in the chorus not the fill lol

guest
You may want to rate the tab now too:
select rating
Wanna post a correction for this tab? Suggest correction