Oops, an error
Loading. Please wait.
We have an official Photograph tab made by UG professional guitarists. Check out the tab »
×

Photograph bass

version 2
version 2

Whole song

  • This is the most accurate and complete version of ... Show more

Interactive

934 views 15 this week
no commentswrite comment
1 2 3 4 5
x 6
add to favorites
×
Save as Personal and add changes to this tab that will be seen only by you. Learn more ›
×
You can save this tab as Personal to edit and correct it or add notes. All changes will be seen only by you. Learn more »
launch autoscroll
font size
0
reset
guitar tuner
backing track
0:00
0:00
edit
Autoscroll
slow
fast
+/-
esc
set tempo
stop
About this tab version
This is the most accurate and complete version of this tab. The other tabs contain incorrect parts and are in both in the wrong tuning (one in normal standard, one in a half step drop tuned standard hybrid). Was this info helpful? Yes No
Title: Photograph
Artist: Def Leppard
Album: Pyromania
Tuning: Standard - 1/2 step down (D# G# C# F#)
Tab Author: Pearce Hamblin (The Bass Diaries)

                                                                          Verse 1
F#|--------|--------|--------|--------|--------|--------|--------|--------|--------|
C#|--------|--------|--------|--------|--------|--------|--------|--------|--------|
G#|--------|--------|--------|--------|--------|--------|--------|--------|--------|
D#|--------|--------|--------|--------|--------|--------|--------|--------|--------|


F#|--------|--------|--------|--------|--------|--------|---------------------------------|
C#|--------|--------|--------|--------|--------|--------|---------------------------------|
G#|--------|--------|--------|--------|--------|--------|---------------------------------|
D#|--------|--------|--------|--------|--------|--------|---------------------12--12--12\\|


F#|---------------------------------|---------------------------------|---------------------------------|
C#|---------------------------------|---------------------------------|---------------------------------|
G#|---------------------------------|---------------------------------|---------------------------------|
D#|\\\\\0---0---0---0---0---0---0---|-0---0---0---0---0---12--12--12\\|\\\\\0---0---0---0---0---0---0---|


F#|---------------------------------|---------------------------------|-----------------------------------|
C#|---------------------------------|---------------------------------|-----------------------------------|
G#|---------------------------------|---------------------------------|-----------------------------------|
D#|-0---0---0---0---0---12--12--12\\|\\\\\0---0---0---0---0---0---0---|-0---0---0---0---0---12--12--12-12-|

                                                                   Pre-Chorus 1
F#|------------------------------|---------------------------------|---------------------------------|
C#|------------------------------|---------------------------------|---------------------------------|
G#|------2---2-------2---0---0---|-----0---12--12------12--12--12--|-3---3---3-------------------2---|
D#|-12---------------------------|---------------------------------|---------------------------------|


F#|---------------------------------|-----------------------|------------------------|
C#|---------------------------------|-----------------------|------------------------|
G#|-----2---2-------------------5---|-----0---0---------5---|-----0---------0----2---|
D#|---------------------------------|-----------------------|----------3b------------|


F#|---------------------------------|---------------------------------|-----------------------|
C#|---------------------------------|---------------------------------|-----------------------|
G#|-3---3---3-------------------2---|-----2---2-------------------5---|-----0---0---------5---|
D#|---------------------------------|---------------------------------|-----------------------|

                           Chorus 1
F#|------------------------|---------------------------------|---------------------------------|
C#|------------------------|---------------------------------|---------------------------------|
G#|-----0---------0----0---|-2---2---2---3---3---3---3---3---|-5---5---5---7---7---7---7---0---|
D#|----------3b------------|---------------------------------|---------------------------------|


F#|---------------------------------|---------------------------------|---------------------------------|
C#|---------------------------------|---------------------------------|---------------------------------|
G#|-2---2---2---3---3---3---3---3---|-7---7---7---5---5---5---5---0---|-2---2---2---3---3---3---3---3---|
D#|---------------------------------|---------------------------------|---------------------------------|


F#|---------------------------------|------------------------------|--------|----------------|
C#|---------------------------------|------------------------------|--------|----------------|
G#|-5---5---5---7---7---7---7---0---|-2---2---2---3---3---3---3----|--------|-3--------------|
D#|---------------------------------|------------------------------|--------|----------------|

Verse 2
F#|----|---------------------------------|---------------------------------|---------------------------------|
C#|----|---------------------------------|---------------------------------|---------------------------------|
G#|----|---------------------------------|---------------------------------|---------------------------------|
D#|----|-0---0---0---0---0---0---0---0---|-0---0---0---0---0---0---0---0---|-0---0---0---0---0---0---0---0---|


F#|---------------------------------|---------------------------------|---------------------------------|
C#|---------------------------------|---------------------------------|---------------------------------|
G#|---------------------------------|---------------------------------|---------------------------------|
D#|-0---0---0---0---0---0---0---0---|-0---0---0---0---0---0---0---0---|-0---0---0---0---0---0---0---0---|


F#|-----------------------------------|---------------------------|---------------------------------|
C#|-----------------------------------|---------------------------|---------------------------------|
G#|-----------------------------------|---------------------------|---------------------------------|
D#|-0---0---0---0---0---0---0---5--5--|-5----5---5----12--12--12\\|\\\\\0---0---0---0---0---0---0---|


F#|---------------------------------|---------------------------------|---------------------------------|
C#|---------------------------------|---------------------------------|---------------------------------|
G#|---------------------------------|---------------------------------|---------------------------------|
D#|-0---0---0---0---0---12--12--12\\|\\\\\0---0---0---0---0---0---0---|-0---0---0---0---0---12--12--12\\|


F#|---------------------------------|-----------------------------------|------------------------------|
C#|---------------------------------|-----------------------------------|------------------------------|
G#|---------------------------------|-----------------------------------|------2---2-------2---0---0---|
D#|\\\\\0---0---0---0---0---0---0---|-0---0---0---0---0---12--12--12-12-|-12---------------------------|

                                    Pre-Chorus 2
F#|---------------------------------|---------------------------------|---------------------------------|
C#|---------------------------------|---------------------------------|---------------------------------|
G#|-----0---12--12------12--12--12--|-3---3---3-------------------2---|-----2---2-------------------5---|
D#|---------------------------------|---------------------------------|---------------------------------|


F#|------------------------------|------------------------|---------------------------------|
C#|------------------------------|------------------------|---------------------------------|
G#|-----0---0----------------5---|-----0---------0----2---|-3---3---3-------------------2---|
D#|------------------------------|----------3b------------|---------------------------------|


F#|---------------------------------|------------------------------|------------------------|
C#|---------------------------------|------------------------------|------------------------|
G#|-----2---2-------------------5---|-----0---0----------------5---|-----0---------0----0---|
D#|---------------------------------|------------------------------|----------3b------------|

Chorus 2
F#|---------------------------------|---------------------------------|---------------------------------|
C#|---------------------------------|---------------------------------|---------------------------------|
G#|-2---2---2---3---3---3---3---3---|-5---5---5---7---7---7---7---0---|-2---2---2---3---3---3---3---3---|
D#|---------------------------------|---------------------------------|---------------------------------|


F#|---------------------------------|---------------------------------|---------------------------------|
C#|---------------------------------|---------------------------------|---------------------------------|
G#|-7---7---7---5---5---5---5---0---|-2---2---2---3---3---3---3---3---|-5---5---5---7---7---7---7---0---|
D#|---------------------------------|---------------------------------|---------------------------------|

                                                            Solo
F#|---------------------------------|-----------------------|--------|--------|--------|
C#|---------------------------------|-----------------------|--------|--------|--------|
G#|-2---2---2---3---3---3---3---3---|-7---7---7---5---------|--------|--------|--------|
D#|---------------------------------|-----------------------|--------|--------|--------|


F#|--------|---------------------|---------------------------------|----------------|
C#|--------|---------------------|---------------------------------|----------------|
G#|--------|---------------------|---------------------------------|----------------|
D#|--------|------0---------0----|------0--------0--0--0--12-0--0--|-0--------------|


F#|-----------------------|---------------------------------|---------------------------------|
C#|-----------------------|---------------------------------|---------------------------------|
G#|-----------------------|---------------------------------|---------------------------------|
D#|-3/////12--0---12\\0---|-0---0---0---7---7---7---7---5---|-5---5---5---5---5---5---5---5---|


F#|---------------------------------|---------------------------------|---------------------------------|
C#|---------------------------------|---------------------------------|---------------------------------|
G#|---------------------------------|---------------------------------|---------------------------------|
D#|-0---0---0---7---7---7---7---5---|-5---5---5---5---5---5---5---5---|-0---0---0---7---7---7---7---5---|


F#|-----------------------------------|---------------------------|------------------------------|
C#|-----------------------------------|---------------------------|------------------------------|
G#|-----------------------------------|---------------------------|------------------------------|
D#|-5---5---5---5---5---5---5---0--0--|-0----7---7----7---5---5---|-----5---5---5----5---5---5---|

Pre-Chorus 3
F#|---------------------------------|---------------------------------|------------------------------|
C#|---------------------------------|---------------------------------|------------------------------|
G#|-3---3---3-------------------2---|-----2---2-------------------5---|-----0---0----------------5---|
D#|---------------------------------|---------------------------------|------------------------------|


F#|------------------------|---------------------------------|---------------------------------|
C#|------------------------|---------------------------------|---------------------------------|
G#|-----0---------0----2---|-3---3---3-------------------2---|-----2---2-------------------5---|
D#|----------3b------------|---------------------------------|---------------------------------|

                                                          Chorus 3
F#|------------------------------|------------------------|---------------------------------|
C#|------------------------------|------------------------|---------------------------------|
G#|-----0---0----------------5---|-----0---------0----0---|-2---2---2---3---3---3---3---3---|
D#|------------------------------|----------3b------------|---------------------------------|


F#|---------------------------------|---------------------------------|---------------------------------|
C#|---------------------------------|---------------------------------|---------------------------------|
G#|-5---5---5---7---7---7---7---0---|-2---2---2---3---3---3---3---3---|-7---7---7---5---5---5---5---0---|
D#|---------------------------------|---------------------------------|---------------------------------|


F#|---------------------------------|---------------------------------|---------------------------------|
C#|---------------------------------|---------------------------------|---------------------------------|
G#|-2---2---2---3---3---3---3---3---|-5---5---5---7---7---7---7---0---|-2---2---2---3---3---3---3\\\0---|
D#|---------------------------------|---------------------------------|---------------------------------|

       Outro
F#|----|---------------------------------|---------------------------------|---------------------------------|
C#|----|---------------------------------|---------------------------------|---------------------------------|
G#|----|-----3---3---3---3---3---3---3---|-3---3---3---3---3---5---5---7---|-2---2---2---3---3---3---3---3---|
D#|----|---------------------------------|---------------------------------|---------------------------------|


F#|---------------------------------|---------------------------------|---------------------------------|
C#|---------------------------------|---------------------------------|---------------------------------|
G#|-5---5---5---7---7---7---7---0---|-2---2---2---3---3---3---3---3---|-7---7---7---5---5---5---5---0---|
D#|---------------------------------|---------------------------------|---------------------------------|


F#|---------------------------------|---------------------------------|---------------------------------|
C#|---------------------------------|---------------------------------|---------------------------------|
G#|-2---2---2---3---3---3---3---3---|-5---5---5---7---7---7---7---0---|-2---2---2---3---3---3---3---3---|
D#|---------------------------------|---------------------------------|---------------------------------|


F#|---------------------------------|---------------------------------|---------------------------------|
C#|---------------------------------|---------------------------------|---------------------------------|
G#|-7---7---7---5---5---5---5---0---|-2---2---2---3---3---3---3---3---|-5---5---5---7---7---7---7---0---|
D#|---------------------------------|---------------------------------|---------------------------------|


F#|---------------------------------|---------------------------------|---------------------------------|
C#|---------------------------------|---------------------------------|---------------------------------|
G#|-2---2---2---3---3---3---3---3---|-7---7---7---5---5---5---5---0---|-2---2---2---3---3---3---3---3---|
D#|---------------------------------|---------------------------------|---------------------------------|


F#|---------------------------------|---------------------------------|---------------------------------|
C#|---------------------------------|---------------------------------|---------------------------------|
G#|-5---5---5---7---7---7---7---0---|-2---2---2---3---3---3---3---3---|-7---7---7---5---5---5---5---0---|
D#|---------------------------------|---------------------------------|---------------------------------|


F#|---------------------------------|---------------------------------|---------------------------------|
C#|---------------------------------|---------------------------------|---------------------------------|
G#|-2---2---2---3---3---3---3---3---|-5---5---5---7---7---7---7---0---|-2---2---2---3---3---3---3---3---|
D#|---------------------------------|---------------------------------|---------------------------------|


F#|---------------------------------|---------------------------------|---------------------------------|
C#|---------------------------------|---------------------------------|---------------------------------|
G#|-7---7---7---5---5---5---5---0---|-2---2---2---3---3---3---3---3---|-5---5---5---7---7---7---7---0---|
D#|---------------------------------|---------------------------------|---------------------------------|


F#|---------------------------------|---------------------------------|
C#|---------------------------------|---------------------------------|
G#|-2---2---2---3---3---3---3---3---|-7---7---7---5---5---5---5---0---|
D#|---------------------------------|---------------------------------|

            
            
Suggest correction
Creating personal tab
Creating personal tab
You can edit any tab online and save it as your Personal.

You can edit, replace or remove any tab part or add personal notes – all changes will be seen only by you.

Personal tabs can be accessed anytime from any device, even offline.
Learn more »
comments
print report bad tab
guest
You may want to rate the tab now too:
select rating
Wanna post a correction for this tab? Suggest correction