Oops, an error
Loading. Please wait.

Pour Some Sugar On Me Bass Tab

version 1
version 1

Whole song

Interactive

23,773 views 78 this week
4 commentsread comments
1 2 3 4 5
x 9
add to favorites
launch autoscroll
font size
0
reset
guitar tuner
backing track
0:00
0:00
×
Best way to learn
"Pour Some Sugar On Me"
Autoscroll
slow
fast
+/-
esc
set tempo
stop
intro:

g|----------------------------------------||
d|----------------------------------------||
a|----------------------------------------||
e|--0-0--0-0--0-0--0-0--0-0--0-0--55-32-35||

pre-chorus:
"take your bottle shake it up break the bubble break it up"

g|-------------------------------||
d|-------------------------------||
a|-------22------22------00---0-2||
e|--2-22----2-22----0-00----0----||

chorus:

"pour some sugar on me"

g|-----------------------------------------||
d|-----------------------------------------||
a|---00-022-22----00-022-22----00-022------||
e|00-----------00-----------00--------53-55||

chorus break:

g|---------------------||
d|---------------------||
a|---------------------||
e|-00--00--00--00--5-35||


solo:
                   *= let it ring
g|----------||
d|----------||
a|----------||
e|---0*---0*||


play this right after solo part:

"you got the peaches i got the cream sweet to taste sarcramean cause im hot-hot smo what 
sticky sweet from me head-head-head-head to my feet"

g|---------------||
d|---------------||
a|---------------||
e|---0*---0*--000||
"do you take sugar.....one lump or two"

play this during ending part:

g|-------||
d|-------||
a|-22-244||
e|-------||


song structure:

intro x1
chorus x1
chorus break x1
solo x1
after solo part x1
chorus x6 or 7 at the most
Suggest correction
comments
print report bad tab
4 comments total. Showing first comments.
0 reply
saturns_bassman 789 Jun 12, 2004 08:00 PM

hey everybody i am the guy who frst tabbed this song since i cant edit it because it is already on here i messed up on the endingit goes like this:

g|-------------||
d|-------------||
a|--44--22--244||
e|-------------||

sorry for any trouble made by this little careless mistake!!

0 reply
saturns_bassman 789 Jun 12, 2004 08:00 PM

hey everybody i am the guy who first tabbed this song,since i cant edit it since it is already on here im here to fix the ending hopefully you viewed this to see the ending part it foes some like this:

g|------------||
d|------------||
a|-44--22--244||
e|------------||

0 reply
saturns_bassman 789 Jun 12, 2004 08:00 PM

hey everybody i am the guy who first tabbed this song,since i cant edit this since it is already on here i am here to fix the ending part-hopefully you viewed this so you can see how it goes.
it goes something like this:

g|------------||
d|------------||
a|-22--44--244||
e|------------||

sorry for any trouble this made bye this careless mistake(tabbed by saturns_bassman)

guest
You may want to rate the tab now too:
select rating
Wanna post a correction for this tab? Suggest correction