Oops, an error
Loading. Please wait.

Pour Some Sugar On Me Bass

version 2
version 2

Whole song

Interactive

12,352 views 6 this week
6 commentsread comments
1 2 3 4 5
1 last vote to show rating
add to favorites
launch autoscroll
font size
0
reset
guitar tuner
backing track
0:00
0:00
×
Best way to learn
"Pour Some Sugar On Me"
Autoscroll
slow
fast
+/-
esc
set tempo
stop
Tuning
D A D G
Tuning-Drop D ( c# a d g)

[Intro]
                           _ _ _ _ _ _
G|------------------------|---------|
D|------------------------|---------|(<-------i kind of guessed on 
A|------------------------|---------|          this part)
D|-0-0---0-0---0-0---0-0--|-55-32-5-|

[Pre-Chorus]
G|----------------------------------------------------|
D|----------------------------------------------------|
A|---------2-2-----------2-2---------0-0-------0--2-22|
D|-55-5----------55-5----------33-3---------3---------|

[Chorus] (x3)
                         (third time only)
G|---------------------|--------|
D|---------------------|--------|<-----(guessd on this one too)
A|------0-0----022-22--|----0-0-|
D|-3-3-----------------|-3------|

[Chorus-break]
G|-------------------------------|
D|-------------------------------|
A|-------------------------------|
D|-0-0----0-0----0-0----0-0---355|

[Pre-Chorus]
G|----------------------------------------------------|
D|----------------------------------------------------|
A|---------2-2-----------2-2---------0-0-------0--2-22|
D|-55-5----------55-5----------33-3---------3---------|

[Solo]
    two different parts
G|---------|---------|
D|---------|---------|
A|---------|---------|
D|-0---0---|-0---0---|

(play this little riff after the big chorus part:)
G|-----------|
D|-----------|
A|-----------|
D|-3-----3---|

[Chorus] (x6)
                         (third time only)
G|---------------------|--------|
D|---------------------|--------|<-----(guessd on this one too)
A|------0-0----022-22--|----0-0-|
D|-3-3-----------------|-3------|

[Outro]
G|------------|
D|------------|
A|--44-22--244|
D|------------|



************************************

| (< 
| < 

************************************
Suggest correction
Give kudos to tab author, rate the tab!
1 2 3 4 5
comments
print report bad tab
6 comments total. Showing first comments.
0 reply
saturns_bassman 789 Jun 13, 2004 08:00 PM

i hope you guys enjoy this one!!
(i am the guy who tabbed this one and the other verion my name is saturns_bassman you will be seeing more Def Leppard tabs tabbed out by me soon!!!)

+1 reply
saturns_bassman 789 Jul 29, 2005 08:00 PM

never mind the drop D thing just do the C# thing

+1 reply
saturns_bassman 789 Jul 29, 2005 08:00 PM

never mind the drop D thing just do the C# thing

guest
You may want to rate the tab now too:
select rating
Wanna post a correction for this tab? Suggest correction