Oops, an error
Loading. Please wait.

Pour Some Sugar On Me Bass Tab

version 2
version 2

Whole song

Interactive

11,911 views 1 this week
6 commentsread comments
1 2 3 4 5
please rate
add to favorites
launch autoscroll
font size
0
reset
guitar tuner
Tab Pro tools
  • play this tab
  • loop segment
  • change instrument
  • show fretboard
  • metronome
×
Best way to learn
"Pour Some Sugar On Me"
Autoscroll
slow
fast
+/-
esc
set tempo
stop
ok,everyone out there viewing this i am the same guy who tabbed the first version
of this song,i hope this one is better than the first and hopefully works for all of you.

Tuning-Drop D ( c# a d g)

intro:
 x1
                           _ _ _ _ _ _
 g|------------------------|---------||
 d|------------------------|---------||(<-------i kind of guessed on 
 a|------------------------|---------||          this part)
c#|-0-0---0-0---0-0---0-0--|-55-32-5-||

pre-chorus
 x1

 g|----------------------------------------------------||
 d|----------------------------------------------------||
 a|---------2-2-----------2-2---------0-0-------0--2-22||
c#|-55-5----------55-5----------33-3---------3---------||

chorus:
 x3
                         (third time only)
 g|---------------------|--------||
 d|---------------------|--------||<-----(guessd on this one too)
 a|------0-0----022-22--|----0-0-||
c#|-3-3-----------------|-3------||

chorus-break
 x1

 g|-------------------------------||
 d|-------------------------------||
 a|-------------------------------||
c#|-0-0----0-0----0-0----0-0---355||

solo-part:
 x1
    two different parts
 g|---------|---------||
 d|---------|---------||
 a|---------|---------||
c#|-0---0---|-0---0---||

play this little riff after the big chorus part:
 x1

 g|-----------||
 d|-----------||
 a|-----------||
c#|-3-----3---||

play this at the end:
 x1

 g|------------||
 d|------------||
 a|--44-22--244||
c#|------------||


Song Structure:

intro x1
pre-chorus x1
chorus x3
chorus-break x1
pre-chorus x1
solo-part x1
little-riff x1
chorus x6 or x7 at the most
comments
We did not receive enough feedback on this tab! Please rate:
print report bad tab
1 2 3 4 5
6 comments total. Showing first comments.
0 reply
saturns_bassman wrote on June 14 2004, 12:00 am

i hope you guys enjoy this one!!
(i am the guy who tabbed this one and the other verion my name is saturns_bassman you will be seeing more Def Leppard tabs tabbed out by me soon!!!)

+1 reply
saturns_bassman wrote on July 30 2005, 12:00 am

never mind the drop D thing just do the C# thing

+1 reply
saturns_bassman wrote on July 30 2005, 12:00 am

never mind the drop D thing just do the C# thing

I want to post or [tab]
guest
You may want to rate the tab now too:
select rating
Please do not post tabs as comments. Select "correction" instead!