Oops, an error
Loading. Please wait.

Pour Some Sugar On Me Tab

version 2
version 2

Whole song

Interactive

230,871 views 447 this week
16 commentsread comments
1 2 3 4 5
x 48
add to favorites
launch autoscroll
font size
0
reset
how to read this tab
guitar tuner
backing track
0:00
0:00
×
Best way to learn
"Pour Some Sugar On Me"
Autoscroll
slow
fast
+/-
esc
set tempo
stop
Author
Def Leppard
Pour Some Sugar On Me
As recorded by Def Leppard
(From the 1987 Album HYSTERIA)
Words and Music by Def Leppard

    C#5
x 4 6 6 4 x

[Intro]
  Moderate Rock Q=92
 4/4
  Gtr I
                 ~~~~~~      ~                 ~~~~~~    ~
e|-----------------------------|---------------------------|
B|-----------------------------|---------------------------|
G|---6p4---4-----6-(6)-4---4-6-|---6p4---4-----6-(6)-4-4-3-|
D|-------6---5-x---------6-----|-------6---5-x-------------|
A|-4---------------------------|-4-------------------------|
E|-----------------------------|---------------------------|

                                                   <
                 ~~~~~~      ~
e|-----------------------------|-----------------------|
B|-----------------------------|-------------------4---|
G|---6p4---4-----6-(6)-4---4-6-|---6-4----4--4--6--4---|
D|-------6---5-x---------6-----|-------6--4--4--6--4---|
A|-4---------------------------|-4--------2--2--4------|
E|-----------------------------|-----------------------|

                                [Gtr II]
e|-----------------------------|-----------------------|
B|-----------------------------|-----------------------|
G|-----------------------------|----------------6------|
D|-----------------------------|----------------6------|
A|-----------------------------|---------14\-2--4------|
E|-----------------------------|-----------------------|

[1st Verse]
e|-----|
B|-----|
G|-----|
D|-----|
A|-----|
E|-----|

      PM--|             PM--|             PM------------|
e|-----------------|-----------------|-------------------|
B|-----------------|-----------------|-------------------|
G|-6-6-------6-----|-6-6-------6-----|-6-6-------6-------|
D|-6-6-------6-----|-6-6-------6-----|-6-6-------6-------|
A|-4-4---4---4-----|-4-4---4---4-----|-4-4---4---4-------|
E|-----6---6-------|-----6---6-------|-----6---6---------|

      PM--|             PM--|
e|-----------------|-----------------|
B|-----------------|-----------------|
G|-6-6-------6-----|-6-6-------6-----|
D|-6-6-------6-----|-6-6-------6-----|
A|-4-4---4---4-----|-4-4---4---4-----|
E|-----6---6-------|-----6---6-------|

      PM--|               PM--|             PM-------------|
e|-------------------|-----------------|--------------------|
B|-------------------|-----------------|--------------------|
G|-6-6-------6-------|-6-6-------6-----|-6-6-------6--------|
D|-6-6-------6-------|-6-6-------6-----|-6-6-------6--------|
A|-4-4---4---4---9\--|-4-4---4---4-----|-4-4---4---4--------|
E|-----6---6---------|-----6---6-------|-----6---6------0---|

[Pre-Chorus]
   $
   $$
               ~                  ~
e|------------------|------------------|
B|------------------|------------------|
G|-----6p4-x-4-4----|-----6p4-x-4-4----|
D|-6-x-6p4-x-4-4----|-6-x-6p4-x-4-4----|
A|-4-x---------2----|-4-x---------2----|
E|-2----------------|-2----------------|

                                To Coda
              ~                     ~~~
e|-----------------|----------------------|
B|-----------------|----------------------|
G|---x-4----2-2----|-----2-(2)-2-4-(4)----|
D|-2-x-4----2-2----|-2-2-2-(2)-2-4-(4)----|
A|-2------0---0----|-2-2-0-(0)-0-2-(2)----|
E|-0---------------|-0-0------------------|

[Chorus 1]
              PM                           PM
e|--------------|-------------|--------------|
B|--------------|-------------|--------------|
G|-------2-2----|-4-4---4-4---|-------2-2----|
D|-2-2---2-2----|-4-4---4-4---|-2-2---2-2----|
A|-2-2---0-0--0-|-2-2---2-2---|-2-2---0-0--0-|
E|-0-0----------|-------------|-0-0----------|

                            PM             PM
e|-------------|--------------|--------------|
B|-------------|--------------|--------------|
G|-4-4---4-4---|-------2-2----|-4-4---4-4----|
D|-4-4---4-4---|-2-2---2-2----|-4-4---4-4----|
A|-2-2---2-2---|-2-2---0-0--0-|-2-2---2-2--2-|
E|-------------|-0-0----------|--------------|

                                                     ~~~~~~      ~
e|-----------------|--------------|--------------------------------|
B|-----------------|--------------|--------------------------------|
G|-6-----6---------|--------------|------6p4---4-----6-(6)-4---4-6-|
D|-6-----6---------|--------------|----------6---5-x---------6-----|
A|-4-----4---------|--------------|---4----------------------------|
E|-----------------|--------------|--------------------------------|

  [Gtr II]
   \3.5_______/             \2        
                                     ~~~~
e|-----------------|--------------|--------------------------------|
B|-----------------|--------------|--------------------------------|
G|-----------------|--------------|--------------------------------|
D|-----------------|--------------|-{11}---------------------------|
A|-----------------|--------------|--------------------------------|
E|-0----------0----|-(0)----0-----|--------------------------------|

                        ~~~~~~    ~
e|----------------------------------|
B|----------------------------------|
G|----------6p4---4-----6-(6)-4-4-3-|
D|--------------6---5-x-------------|
A|----4-----------------------------|
E|----------------------------------|

     \2.5___________________________
     ~~~~~~~~
e|----------------------------------|
B|----------------------------------|
G|----------------------------------|
D|-({11})---------------------------|
A|----------------------------------|
E|----------------------------------|

                                                                      <
                                  ~~~~~~      ~
e|----------------------------------------------|-------------------------|
B|----------------------------------------------|--------------------4----|
G|----------6p4-----------4-------6-(6)-4---4-6-|------6-4---4-4--6--4----|
D|-----------------6----------5-x---------6-----|----------6-4-4--6--4----|
A|----4-----------------------------------------|--4---------2-2--4-------|
E|----------------------------------------------|-------------------------|

     /2.5________________/                          
e|----------------------------------------------|-------------------------|
B|----------------------------------------------|-------------------------|
G|----------------------------------------------|------------4----6-------|
D|-({11})-------({11})-({11})-------------------|-{11}-------4----6-------|
A|----------------------------------------------|------------2----4-------|
E|----------------------------------------------|-------------------------|

[2nd Verse]
          <              <
                                                       \3____|
e|----------|--------------|----------------|--------------------|
B|--------9-|-(9)-9------9-|-(9)-9------9-9-|--9-(9)--(9)----x---|
G|--------9-|-(9)-9------9-|-(9)-9------9-9-|--9-(9)--(9)----x---|
D|--------9-|-(9)-9------9-|-(9)-9------9-9-|--9-(9)--(9)----x---|
A|----------|--------------|----------------|--------------------|
E|----------|--------------|----------------|--------------------|

                                  PM--------------------------------|
e|------------|------------------|-----------------------------------|
B|------9---9-|-9----x-9--9-(9)--|-----------------------------------|
G|------9---9-|-9----x-9--9-(9)--|-----------------------------------|
D|------9---9-|-9----x-9--9-(9)--|-----------------------------------|
A|------------|------------------|-4-4-4-4-4-4-4-4-4-4-4-4-4-4-4-4---|
E|------------|------------------|-----------------------------------|

e|--------------------------------------|
B|--------------------------------------|
G|--------------------------------------|
D|--------------------------------------|
A|-4-4-4-4-4-4-4-4-4-4-4-4-4-4-4-4------|
E|--------------------------------------|

  PM------------------------------------------------------------------|
e|---------------------------------|-----------------------------------|
B|---------------------------------|-----------------------------------|
G|---------------------------------|-----------------------------------|
D|---------------------------------|-----------------------------------|
A|-4-4-4-4-4-4-4-4-4-4-4-4-4-4-4-4-|-4-4-4-4-4-4-4-4-4-4-4-4-4-4-4-4---|
E|---------------------------------|-----------------------------------|

                                                      D.S. al Coda
  |----------------------------------------------------------------------|
e|---------------------------------|--------------------------------------|
B|---------------------------------|--------------------------------------|
G|---------------6-x-6-x-6-6-6-6-6-|---------------6-x-6-x-6-6-6-6-6------|
D|---------------6-x-6-x-6-6-6-6-6-|---------------6-x-6-x-6-6-6-6-6------|
A|-4-4-4-4-4-4-4-4-x-4-x-4-4-4-4-4-|-4-4-4-4-4-4-4-4-x-4-x-4-4-4-4-4------|
E|---------------------------------|--------------------------------------|

[Chorus 2]
   &
                               PM
e|-------------------------------|---------------------------------|
B|-------------------------------|---------------------------------|
G|---------------2---2-----------|-4---4-----------4---4-----------|
D|-2-2-----------2---2-----------|-4---4-----------4---4-----------|
A|-2-2-----------0---0---------0-|-2---2-----------2---2-----------|
E|-0-0---------------------------|---------------------------------|

[Gtr II]
  PM----------------------------------------------------------------|
e|-0-0-0-0-0-0-0-0-0-0-0-0-0-0-0-|-0-0-0-0-0-0-0-0-0-0-0-0-0-0-0-0---|
B|-------------------------------|-----------------------------------|
G|-------------------------------|-----------------------------------|
D|-------------------------------|-----------------------------------|
A|-------------------------------|-----------------------------------|
E|-------------------------------|-----------------------------------|

                                 PM
e|---------------------------------|
B|---------------------------------|
G|-----------------2---2-----------|
D|-2---2-----------2---2-----------|
A|-2---2-----------0---0---------0-|
E|-0---0---------------------------|

  |-------------------------------|
e|-0-0-0-0-0-0-0-0-0-0-0-0-0-0-0-0---|
B|-----------------------------------|
G|-----------------------------------|
D|-----------------------------------|
A|-----------------------------------|
E|-----------------------------------|

                                                                 PM
e|-------------------------------|---------------------------------|
B|-------------------------------|---------------------------------|
G|-4-4-----------4---4-----------|-----------------2---2-----------|
D|-4-4-----------4---4-----------|-2---2-----------2---2-----------|
A|-2-2-----------2---2-----------|-2---2-----------0---0---------0-|
E|-------------------------------|-0---0---------------------------|

  PM---------------------------------------------------------------|
e|-0-0-0-0-0-0-0-0-0-0-0-0-0-0-0-|-0-0-0-0-0-0-0-0-0-0-0-0-0-0-0-0---|
B|-------------------------------|-----------------------------------|
G|-------------------------------|-----------------------------------|
D|-------------------------------|-----------------------------------|
A|-------------------------------|-----------------------------------|
E|-------------------------------|-----------------------------------|

                                 PM
e|---------------------------------|
B|---------------------------------|
G|-4---4-----------4---4-----------|
D|-4---4-----------4---4-----------|
A|-2---2-----------2---2---------2-|
E|---------------------------------|

  |---------------------------------|
e|-0-0-0-0-0-0-0-0-0-0-0-0-0-0-0-0---|
B|-----------------------------------|
G|-----------------------------------|
D|-----------------------------------|
A|-----------------------------------|
E|-----------------------------------|

 [Interlude]
                          <             <
e|------------|---------|-------------|-------------|
B|------------|---------|-------------|-------------|
G|-6-6--------|---------|-7--(7)------|-7--(7)------|
D|-6-6--------|---------|-7--(7)------|-7--(7)------|
A|-4-4--------|---------|-5--(5)------|-5--(5)------|
E|------------|---------|-------------|-------------|

[Gtr I]
  PM--------------------------------------------------------------------|
e|---------------------------------|-------------------------------------|
B|---------------------------------|-------------------------------------|
G|---------------------------------|-------------------------------------|
D|---------------------------------|-------------------------------------|
A|-5-5-5-5-5-5-5-5-5-5-5-5-5-5-5-5-|-5-5-5-5-5-5-5-5-5-5-5-5-5-5-5-5-----|
E|---------------------------------|-------------------------------------|

[Gtr II]
  PM--------------------------------------------------------------------|
e|---------------------------------|-------------------------------------|
B|---------------------------------|-------------------------------------|
G|-7-7-6-6-7-7-6-7-7-7-6-6-7-7-6-6-|-7-7-6-6-7-7-6-7-7-7-6-6-7-7-6-4-4---|
D|---------------------------------|-------------------------------2-2---|
A|---------------------------------|-------------------------------2-2---|
E|---------------------------------|-------------------------------0-0---|

   Gtr I           Gtr II
                              ~~~
e|-----------|--------------------|
B|-----------|--------------------|
G|-4-------4-|-4------------------|
D|-2-------2-|-2------------------|
A|-2-------2-|-2-----7--6--5-(5)--|
E|-0-------0-|-0---0--------------|

  [Gtr I]
  PM-------------------------------------------------------------------|
e|---------------------------------|------------------------------------|
B|---------------------------------|------------------------------------|
G|---------------------------------|------------------------------------|
D|---------------------------------|------------------------------------|
A|-5-5-5-5-5-5-5-5-5-5-5-5-5-5-5-5-|-5-5-5-5-5-5-5-5-5-5-5-5-5-5-5-5----|
E|---------------------------------|------------------------------------|

[Gtr II]
 PM-------------------------------------------------------------------|
e|---------------------------------|------------------------------------|
B|---------------------------------|------------------------------------|
G|-7-7-6-6-7-7-6-7-7-7-6-6-7-7-6-6-|-7-9-7-6-7---6-7---7-6---6----------|
D|---------------------------------|-----------9-----9-----9---6-7-9----|
A|---------------------------------|------------------------------------|
E|---------------------------------|------------------------------------|

[Gtr Gtr II]          [Gtr Gtr II]
      PM------|   ~~      PM|       PM-------------|
e|-------------------|------------------------------|
B|-------------------|------------------------------|
G|-4-----------------|-4----------------------------|
D|-2-----------------|-2-------------7--------------|
A|-2---7-------------|-2-------5s7p0-----7-(7)\-----|
E|-0-----7--9--9--10-|-0---0-0---------0------------|

[3rd Verse]
e|-----|
B|-----|
G|-----|
D|-----|
A|-----|
E|-----|

                                              D.S.S. al Dbl. Coda
[Gtr I]
e|------------|-----------------------|----------------------------|
B|------------|-----------------------|----------------------------|
G|--------4-4-|-4-----------------4-4-|-4--------------------------|
D|--------2-2-|-2-----------------2-2-|-2--------------------------|
A|--------2-2-|-2-----------------2-2-|-2--------------------------|
E|--------0-0-|-0-----------------0-0-|-0--------------------------|

[Gtr II]
                   PM------|   ~~          PM|       PM--------------|
e|------------|-----------------------|-------------------------------|
B|------------|-----------------------|-------------------------------|
G|------------|-4---------------------|-4-----------------------------|
D|------------|-2---------------------|-2-------------7---------------|
A|------------|-2---7-----------------|-2-------5s7p0-----7-(7)\------|
E|------------|-0-----7--9--9--10-----|-0---0-0---------0-------------|

[Chorus 3]
   &&
                               PM
e|-------------------------------|---------------------------------|
B|-------------------------------|---------------------------------|
G|---------------2---2-----------|-4---4-----------4---4-----------|
D|-2-2-----------2---2-----------|-4---4-----------4---4-----------|
A|-2-2-----------0---0---------0-|-2---2-----------2---2-----------|
E|-0-0---------------------------|---------------------------------|

[Gtr II]
  PM--------------------------------------------------------------|
e|-0-0-0-0-0-0-0-0-0-0-0-0-0-0-0-|-0-0-0-0-0-0-0-0-0-0-0-0-0-0-0-0---|
B|-------------------------------|-----------------------------------|
G|-------------------------------|-----------------------------------|
D|-------------------------------|-----------------------------------|
A|-------------------------------|-----------------------------------|
E|-------------------------------|-----------------------------------|

                                 PM
e|---------------------------------|------------------------------------|
B|---------------------------------|------------------------------------|
G|-----------------2---2-----------|-4---4-----------4---4--------------|
D|-2---2-----------2---2-----------|-4---4-----------4---4--------------|
A|-2---2-----------0---0---------0-|-2---2-----------2---2--------------|
E|-0---0---------------------------|------------------------------------|

    |----------------------------------------------------------------|
e|-0-0-0-0-0-0-0-0-0-0-0-0-0-0-0-0-|-0-0-0-0-0-0-0-0-0-0-0-0-0-0-0-0------|
B|---------------------------------|--------------------------------------|
G|---------------------------------|--------------------------------------|
D|---------------------------------|--------------------------------------|
A|---------------------------------|--------------------------------------|
E|---------------------------------|--------------------------------------|

[Out-Chorus-Solo]
[Gtr I]
                               PM
e|-------------------------------|-----------------------------------|
B|-------------------------------|-----------------------------------|
G|---------------2---2-----------|-4---4-----------4----4------------|
D|-2---2---------2---2-----------|-4---4-----------4----4------------|
A|-2---2---------0---0---------0-|-2---2-----------2----2------------|
E|-0---0-------------------------|-----------------------------------|

[Gtr II]
e|-0-0-0-0-7-0-0-0-0-0-0-7p0-0-0-|-0-0-0-0-7-7-0-0-------------------|
B|-------------------------------|-----------------7b9r(7)p5-7b9-7p5-|
G|-------------------------------|-----------------------------------|
D|-------------------------------|-----------------------------------|
A|-------------------------------|-----------------------------------|
E|-------------------------------|-----------------------------------|

                             PM
e|-----------------------------|-------------------------|
B|-----------------------------|-------------------------|
G|-------------2----2----------|--4--4------4-4----------|
D|-2---2-------2----2----------|--4--4------4-4----------|
A|-2---2-------0----0--------0-|--2--2------2-2----------|
E|-0---0-----------------------|-------------------------|

         ~                        ~~~~~~~~~~~~~~~~~~~~
e|-----------------------12----|-------------------------|
B|-7b9---9-------x-10-12----10-|----14b16-------14b16----|
G|---------9-9-9---------------|-11---------9-8----------|
D|-----------------------------|-------------------------|
A|-----------------------------|-------------------------|
E|-----------------------------|-------------------------|

                                      PM
e|--------------------------------------|---------------------|
B|--------------------------------------|---------------------|
G|-----------------2----2---------------|--4-4------4-4-------|
D|--2----2---------2----2---------------|--4-4------4-4-------|
A|--2----2---------0----0-------------0-|--2-2------2-2-------|
E|--0----0------------------------------|---------------------|

                                          ~~~~~~~~~~~~~~~~
e|-14b16---14b16--14b16r==(14)-12-12-14-|-14---14--14---14-12-|
B|--------------------------------------|---------------------|
G|--------------------------------------|---------------------|
D|--------------------------------------|---------------------|
A|--------------------------------------|---------------------|
E|--------------------------------------|---------------------|

                                       PM
e|---------------------------------------|---------------------------------------|
B|---------------------------------------|---------------------------------------|
G|------------------2----------2---------|--4----4---------4----4----------------|
D|--2----2----------2----------2---------|--4----4---------4----4----------------|
A|--2----2----------0----------0-------0-|--2----2---------2----2----------------|
E|--0----0-------------------------------|---------------------------------------|

                                 ~~~~~~~~~~~~~~~~             ~~~~~~~~~~
e|--------0-0-0-0-----------12-----------|--------------19------------0-0-0|
B|-15b17---------------------------------|-17b19----17-17----17---17-17----|
G|-----------------11b13-(11)----9-(9)---|---------------------------------|
D|---------------------------------------|---------------------------------|
A|---------------------------------------|---------------------------------|
E|---------------------------------------|---------------------------------|

                                   PM
e|-----------------------------------|
B|-----------------------------------|
G|-----------------2----2------------|
D|--2----2---------2----2------------|
A|--2----2---------0----0----------0-|
E|--0----0---------------------------|

                                 ~~~~~
e|-19b21---19b21--19b21---19p16-19---|
B|-----------------------------------|
G|-----------------------------------|
D|-----------------------------------|
A|-----------------------------------|
E|-----------------------------------|

                                                  PM
e|------------------------------|-------------------|-----------*|
B|------------------------------|-------------------|-----------*|
G|---4---4--------4--4----------|------------2-2----|-4-4-------*|
D|---4---4--------4--4----------|--2-----2---2-2----|-4-4-------*|
A|---2---2--------2--2----------|--2-----2---0-0--0-|-2-2-------*|
E|------------------------------|--0-----0----------|-----------*|

  ~~~~~~~~~~~~~~~~~~~~~~~~
e|-(19)-19-19-19-19-19-19-------|-------------------|-----------*|
B|------------------------17-17-|-19b21-17----------|-----------*|
G|------------------------------|-------------------|-----------*|
D|------------------------------|-------------------|-----------*|
A|------------------------------|-------------------|-----------*|
E|------------------------------|-------------------|-----------*|

************************************

| x    Dead note
| (n)  Ghost note
| p    Pull-off
| b    Bend
| \    Slide down

************************************
Suggest correction
comments
print report bad tab
16 comments total. Showing first comments.
+9 reply
edgespear 113 Apr 30, 2007 11:31 AM

Great Tab Great song. Go Def Leppard!

+2 reply
CrossBack7 96 May 26, 2007 06:33 PM

You've got the roots of it. Sounds like you're missing some notes on the second chorus. Good effort though. This will help me fill in some of the blanks.

+1 reply
Ro734 156 Jul 12, 2008 03:19 AM

solo should be:

E|---------------------------------
B|---------------------------------
G|-7-7-6-6-7-7-6-6-7-7-6-6-7-7-6-6-
D|---------------------------------
A|---------------------------------
E|---------------------------------

Part from that ace tab man

guest
You may want to rate the tab now too:
select rating
Wanna post a correction for this tab? Suggest correction