Oops, an error
Loading. Please wait.

Pour Some Sugar On Me Bass

version 3
version 3

Whole song

Interactive

5,350 views 24 this week
no commentswrite comment
1 2 3 4 5
x 3
add to favorites
launch autoscroll
font size
0
reset
guitar tuner
backing track
0:00
0:00
×
Best way to learn
"Pour Some Sugar On Me"
Autoscroll
slow
fast
+/-
esc
set tempo
stop
DEF LEPPARD
POUR SOME SUGAR ON ME
tabbed by saturns_bassman

intro:
g|-----------------------------------||
d|-----------------------------------||
a|------------------------00-----2-4-||
e|--00----00----00----00------4------||

pre-chorus:
g|--------------------------------------||
d|--------------------------------------||
a|------22------22------00-----0--22222-||
e|--22------22------00------0-----------||

chorus:
g|---------------------------------------------------------------||
d|---------------------------------------------------------------||
a|------00--0-22--22------00--0-22--22------00--0-22-22---2---4\-||
e|--00----------------00----------------00------------------4----||

chorus-break:
g|-------------------------------------||
d|-------------------------------------||
a|-----------------------------0--2-4\-||
e|--0^0^----0^0^----0^0^----00---------||

pre-chorus
chorus
chorus-break

interlude:
(during guitar solo)
g|------------||
d|------------||
a|------------||
e|--00----00--||

during vocal part:
g|---------------||
d|---------------||
a|---------------||
e|--0----0-0000--||

pre-chorus
chorus-5 or 6 times

ending part:
g|----------------||
d|----------------||
a|------00--0-22\-||
e|--00------------||

i know ive tabbed 2 versions already but this is the most exzact on this one just listn
for timeing and corrections please leave a comment.Enjoy!
Suggest correction
Give kudos to tab author, rate the tab!
1 2 3 4 5
comments
print report bad tab
guest
You may want to rate the tab now too:
select rating
Wanna post a correction for this tab? Suggest correction