Oops, an error
Loading. Please wait.

Ride Into The Sun tab

version 1
version 1

Whole song

Interactive

1,811 views 3 this week
no commentswrite comment
1 2 3 4 5
x 3
add to favorites
×
Save as Personal and add changes to this tab that will be seen only by you. Learn more ›
×
You can save this tab as Personal to edit and correct it or add notes. All changes will be seen only by you. Learn more »
launch autoscroll
font size
0
reset
how to read this tab
guitar tuner
edit
Autoscroll
slow
fast
+/-
esc
set tempo
stop
Author
-------------------------------------------------------------------------------
                             RIDE INTO THE SUN - Def Leppard
-------------------------------------------------------------------------------

This tab is for the song of the Def Leppard EP

Tuning: EADGBe

RIFF 1 
e|---------------------------------------------------------------------------|
B|---------------------------------------------------------------------------|
G|---------10--10---8--8-----------10--10---8--8-----------10--10---8--8-----|
D|---------10--10---8--8-----------10--10---8--8-----------10--10---8--8-----|
A|----6/8--8---8----6--6------6/8--8---8----6--6------6/8--8---8----6--6-----|
E|------------------------4-8---------------------4-8------------------------|

e|---------------------------------------------------------------------------|
B|---------------------------------------------------------------------------|
G|-------------10--10---13--13-----------------------------------------------|
D|-------------10--10---13--13-----------------------------------------------|
A|--------6/8--8---8----11--11-----3-6----5-8----3-6----5-8----3-6----5-8----|
E|----4-8------------------------4------6------4------6------4------6--------|


RIFF 2
e|---------------------------------------------------------------------------|
B|---------------------------------------------------------------------------|
G|----------10--x-x-x--10--10----13------------------------------------------|
D|----------10--x-x-x--10--10----13------------------------------------------|
A|-----6/8--8---x-x-x--8---8-----11------------------------------------------|
E|---------------------------------------------------------------------------|

RIFF 3
e|---------------------------------------------------------------------------|
B|---------------------------------------------------------------------------|
G|---------10--10---8--8-----------10--10---8--8-----------10--10---8--8-----|
D|---------10--10---8--8-----------10--10---8--8-----------10--10---8--8-----|
A|----6/8--8---8----6--6------6/8--8---8----6--6------6/8--8---8----6--6-----|
E|------------------------4-8---------------------4-8------------------------|

e|---------------------------------------------------------------------------|
B|---------------------------------------------------------------------------|
G|--------------10--10---8--8----8---8--8------------------8-----------------|
D|--------------10--10---8--8----8---8--8-----------8--8---8-----------------|
A|---------6/8--8---8----6--6----6---6--6--------6--8--8---6-----------------|
E|-----4-8-----------------------------------4-8----6--6---------------------|

e|---------------------------------------------------------------------------|
B|---------------------------------------------------------------------------|
G|---------10--10---8--8-----------10--10---8--8-----------10--10---8--8-----|
D|---------10--10---8--8-----------10--10---8--8-----------10--10---8--8-----|
A|----6/8--8---8----6--6------6/8--8---8----6--6------6/8--8---8----6--6-----|
E|------------------------4-8---------------------4-8------------------------|

e|---------------------------------------------------------------------------|
B|---------------------------------------------------------------------------|
G|-----8---8--8------------------8----------10--10---8--8--------------------|
D|-----8---8--8-----------8--8---8----------10--10---8--8--------------------|
A|-----6---6--6--------6--8--8---6-----6/8--8---8----6--6--------------------|
E|-----------------4-8----6--6-----------------------------------------------|

RIFF 4 (3x)
Guitar
e|---------------------------------------------------------------------------|
B|---------------------------------------------------------------------------|
G|---------------------------------------------------------------------------|
D|-----6----------------------8----------------------------------------------|
A|-----6----------------------8----------------------------------------------|
E|-----4----------------------6----------------------------------------------|
Bass
e|---------------------------------------------------------------------------|
B|---------------------------------------------------------------------------|
G|---------------------------------------------------------------------------|
D|---------------------------------------------------------------------------|
A|----------3-3--4-4--6-6----------5-5--6-6--8-8-----------------------------|
E|-----4-4--------------------6-6--------------------------------------------|

RIFF 4 (1x)
Guitar                        
e|---------------------------------------------------------------------------|
B|---------------------------------------------------------------------------|
G|---------------------------------------------------------------------------|
D|-----10--------------------------------------------------------------------|
A|-----10--------------------------------------------------------------------|
E|-----8---------------------------------------------------------------------|
Bass
e|---------------------------------------------------------------------------|
B|---------------------------------------------------------------------------|
G|---------------------------------------------------------------------------|
D|---------------------------------------------------------------------------|
A|---------------------------------------------------------------------------|
E|-----8-8-8-8--8--6--2--3--8------------------------------------------------|

RIFF 3
e|---------------------------------------------------------------------------|
B|---------------------------------------------------------------------------|
G|---------10--10---8--8-----------10--10---8--8-----------10--10---8--8-----|
D|---------10--10---8--8-----------10--10---8--8-----------10--10---8--8-----|
A|----6/8--8---8----6--6------6/8--8---8----6--6------6/8--8---8----6--6-----|
E|------------------------4-8---------------------4-8------------------------|

e|---------------------------------------------------------------------------|
B|---------------------------------------------------------------------------|
G|--------------10--10---8--8----8---8--8------------------8-----------------|
D|--------------10--10---8--8----8---8--8-----------8--8---8-----------------|
A|---------6/8--8---8----6--6----6---6--6--------6--8--8---6-----------------|
E|-----4-8-----------------------------------4-8----6--6---------------------|

e|---------------------------------------------------------------------------|
B|---------------------------------------------------------------------------|
G|---------10--10---8--8-----------10--10---8--8-----------10--10---8--8-----|
D|---------10--10---8--8-----------10--10---8--8-----------10--10---8--8-----|
A|----6/8--8---8----6--6------6/8--8---8----6--6------6/8--8---8----6--6-----|
E|------------------------4-8---------------------4-8------------------------|

e|---------------------------------------------------------------------------|
B|---------------------------------------------------------------------------|
G|-----8---8--8------------------8----------10--10---8--8--------------------|
D|-----8---8--8-----------8--8---8----------10--10---8--8--------------------|
A|-----6---6--6--------6--8--8---6-----6/8--8---8----6--6--------------------|
E|-----------------4-8----6--6-----------------------------------------------|

RIFF 4 (3x)
Guitar
e|---------------------------------------------------------------------------|
B|---------------------------------------------------------------------------|
G|---------------------------------------------------------------------------|
D|-----6----------------------8----------------------------------------------|
A|-----6----------------------8----------------------------------------------|
E|-----4----------------------6----------------------------------------------|
Bass
e|---------------------------------------------------------------------------|
B|---------------------------------------------------------------------------|
G|---------------------------------------------------------------------------|
D|---------------------------------------------------------------------------|
A|----------3-3--4-4--6-6----------5-5--6-6--8-8-----------------------------|
E|-----4-4--------------------6-6--------------------------------------------|

RIFF 4 (1x)
Guitar                        
e|---------------------------------------------------------------------------|
B|---------------------------------------------------------------------------|
G|---------------------------------------------------------------------------|
D|-----10--------------------------------------------------------------------|
A|-----10--------------------------------------------------------------------|
E|-----8---------------------------------------------------------------------|
Bass
e|---------------------------------------------------------------------------|
B|---------------------------------------------------------------------------|
G|---------------------------------------------------------------------------|
D|---------------------------------------------------------------------------|
A|---------------------------------------------------------------------------|
E|-----8-8-8-8--8--6--2--3--8------------------------------------------------|

SOLO (Riff 3 in background)
e|------------------16-------------------------------------------------------|
B|-----13--13--13------13----------------------------------------------------|
G|-----15b-15b-15b--------13-12---12h13-10h12--8h10-7h8-5h7------------------|
D|-----------------------------------------------------------8-6---6p5-5-----|
A|---------------------------------------------------------------------------|
E|---------------------------------------------------------------------------|

e|---------------------------------------------------------------------------|
B|--------------------------------9h11-11b--11p9----9----9h11p9h11--8---8----|
G|----------------------8h10-10b-----------------10---10---------------------|
D|-----6p5-6/8--6h8/10-------------------------------------------------------|
A|---------------------------------------------------------------------------|
E|---------------------------------------------------------------------------|

e|---------------------------------------------------------------------------|
B|-----8--9p8--11p9--9p8--11p9--9p8--11p9--9p8---11b-11b-11p9----9-----------|
G|------------------------------------------------------------10---10--10----|
D|---------------------------------------------------------------------------|
A|---------------------------------------------------------------------------|
E|---------------------------------------------------------------------------|

e|-------------------------------------------------------8---8----11---------|
B|------------------------------11b-11p9h11--9--11b-11b--11b-11b--11b---9----|
G|-----------8h10--------8h10------------------------------------------------|
D|-----8h10--------8h10------------------------------------------------------|
A|---------------------------------------------------------------------------|
E|---------------------------------------------------------------------------|

RIFF 4 (3x)
Guitar
e|---------------------------------------------------------------------------|
B|---------------------------------------------------------------------------|
G|---------------------------------------------------------------------------|
D|-----6----------------------8----------------------------------------------|
A|-----6----------------------8----------------------------------------------|
E|-----4----------------------6----------------------------------------------|
Bass
e|---------------------------------------------------------------------------|
B|---------------------------------------------------------------------------|
G|---------------------------------------------------------------------------|
D|---------------------------------------------------------------------------|
A|----------3-3--4-4--6-6----------5-5--6-6--8-8-----------------------------|
E|-----4-4--------------------6-6--------------------------------------------|

RIFF 4 (1x)
Guitar                        
e|---------------------------------------------------------------------------|
B|---------------------------------------------------------------------------|
G|---------------------------------------------------------------------------|
D|-----10--------------------------------------------------------------------|
A|-----10--------------------------------------------------------------------|
E|-----8---------------------------------------------------------------------|
Bass
e|---------------------------------------------------------------------------|
B|---------------------------------------------------------------------------|
G|---------------------------------------------------------------------------|
D|---------------------------------------------------------------------------|
A|---------------------------------------------------------------------------|
E|-----8-8-8-8--8--6--2--3--8------------------------------------------------|

RIFF 1 
e|---------------------------------------------------------------------------|
B|---------------------------------------------------------------------------|
G|---------10--10---8--8-----------10--10---8--8-----------10--10---8--8-----|
D|---------10--10---8--8-----------10--10---8--8-----------10--10---8--8-----|
A|----6/8--8---8----6--6------6/8--8---8----6--6------6/8--8---8----6--6-----|
E|------------------------4-8---------------------4-8------------------------|

e|---------------------------------------------------------------------------|
B|---------------------------------------------------------------------------|
G|-------------10--10---13--13-----------------------------------------------|
D|-------------10--10---13--13-----------------------------------------------|
A|--------6/8--8---8----11--11-----3-6----5-8----3-6----5-8----3-6----5-8----|
E|----4-8------------------------4------6------4------6------4------6--------|

| /  slide up
| \  slide down
| h  hammer-on
| p  pull-off
| ~  vibrato
| +  harmonic
| x  Mute note
| pb pre-bend
| b  bend (full)
| hb bend (half)



===============================================================================

            
            
Suggest correction
Creating personal tab
Creating personal tab
You can edit any tab online and save it as your Personal.

You can edit, replace or remove any tab part or add personal notes – all changes will be seen only by you.

Personal tabs can be accessed anytime from any device, even offline.
Learn more »
Give kudos to tab author, rate the tab!
1 2 3 4 5
comments
print report bad tab
guest
You may want to rate the tab now too:
select rating
Wanna post a correction for this tab? Suggest correction