Oops, an error
Loading. Please wait.

Rock Of Ages tab

version 3
version 3

Whole song

Interactive

Video

3,720 views 1 this week
4 commentsread comments
1 2 3 4 5
x 7
add to favorites
×
Save as Personal and add changes to this tab that will be seen only by you. Learn more ›
×
You can save this tab as Personal to edit and correct it or add notes. All changes will be seen only by you. Learn more »
launch autoscroll
font size
0
reset
how to read this tab
guitar tuner
backing track
0:00
0:00
edit
Autoscroll
slow
fast
+/-
esc
set tempo
stop
Author
Difficulty
Song: Rock of Ages
Artist: Def Leppard
tabbed by: Matt Zwart
email: matt_zwart@hotmail.com
* Let ring
/ slide
/ abover number beens bend
listen to the song for timing but i guarentee if you look ALL the riffs are here

Intro
00:12
e|-------------------------------------------------|
B|---5-5-5-5--3-3---------------------3-5----------|
G|---4-4-4-4--2-2-------4-4-4-4-2-----2-4----------|
D|---2-2-2-2--0-0-------4-4-4-4-2-----0-0--2-------|
A|----------------------2-2-2-2-0----------2-------|
E|-----------------------------------------0-------|

e|--------------------------------------------------------|
B|---5-5-5-5--3-3---------------------3-5-----------3/5/3-|
G|---4-4-4-4--2-2-------4-4-4-4-2-----2-4-----------2/4/2-|
D|---2-2-2-2--0-0-------4-4-4-4-2-----0-0--2--------------|
A|----------------------2-2-2-2-0----------2--------------|
E|-----------------------------------------0--------------|

e|-------------------------------------------------|
B|---5-5-5-5--3-3---------------------3-5----------|
G|---4-4-4-4--2-2-------4-4-4-4-2-----2-4----------|
D|---2-2-2-2--0-0-------4-4-4-4-2-----0-0--2-*-----|
A|----------------------2-2-2-2-0----------2-*-----|
E|-----------------------------------------0-*-----|


Verse 1
no guitar till here

0:55
  Just, A Pyromania. Come on!        What do you want?     What do you want?
e|---------------------------------------------------------------------------|
B|----------------------------10/8--------------------10/8-------------------|
G|----------------------------9-/7--------------------9-/7-------------------|
D|----------------------------7-/5--------------------7-/5-----------------2-|
A|-------------------------------------------------------------------------2-|
E|-------------------------------------------------------------------------0-|

   I want rock n roll
e|--------------------------------------------------------------------------|
B|--------------------8/10-------10-10--------------------------------------|
G|--------------------7/9--------9--9---------------------------------------|
D|--------------------5/7--------7--7------2--------------------------------|
A|-----------------------------------------2--------------------------------|
E|-----------------------------------------0--------------------------------|

                   1:17
                   Come on!        What do you want?     What do you want?
e|---------------------------------------------------------------------------|
B|----------------------------10/8--------------------10/8-------------------|
G|----------------------------9-/7--------------------9-/7-------------------|
D|----------------------------7-/5--------------------7-/5-----------------2-|
A|-------------------------------------------------------------------------2-|
E|-------------------------------------------------------------------------0-|

   I want rock n roll                           Oh Yeah!
e|--------------------------------------------------------------------------|
B|--------------------8/10-------10-10--------------------------------------|
G|--------------------7/9--------9--9---------------------------------------|
D|--------------------5/7--------7--7------2--------------------------------|
A|-----------------------------------------2--------------------------------|
E|-----------------------------------------0-------0-0-0-0-0-0-0-0----------|


Chorus
1:31
e|-----------------------------------------------------------------------|
B|-----------------------------------------------------------------------|
G|-----------------------------------------------------------------------|
D|-------5-2-4-2-0-2------5-2-4-2-0-2-----5-2-4-2-0-2-----5-2-4-2-0-2----|
A|--3-3---------------3-3------------------------------------------------|
E|------------------------------------0-0-------------0-0----------------|

e|-----------------------------------------------------------------------|
B|-----------------------------------------------------------------------|
G|-----------------------------------------------------------------------|
D|-------5-2-4-2-0-2------5-2-4-2-0-2-----5-2-4-2-0-2-----5-2-4-2-0-2----|
A|--3-3---------------3-3------------------------------------------------|
E|------------------------------------0-0-------------0-0----------------|
1:50
   We got the power..
e|-----------------------------------------------------------------------|
B|-----------------------------------------------------------------------|
G|-----------------------------------------------------------------------|
D|-------5-2-4-2-0-2------5-2-4-2-0-2-----5-2-4-2-0-2-----5-2-4-2-0-2----|
A|--0-0---------------0-0-------------3-3-------------3-3----------------|
E|-----------------------------------------------------------------------|


e|-----------------------------------------------------------------------|
B|---5-5-5-5--3-3---------------------3-5--------------------------------|
G|---4-4-4-4--2-2-------4-4-4-4-2-----2-4--------------------------------|
D|---2-2-2-2--0-0-------4-4-4-4-2-----0-0--2-----------------------------|
A|----------------------2-2-2-2-0----------2-----------------------------|
E|-----------------------------------------0-----------------------------|

   Im Burnin' Burnin'        2:11
e|---------------------------------------------------------------------------|
B|-------------------------------12------------------------------------------|
G|-------------------------------12-12/\/\/\/--------------------------------|
D|-2--------------------------12----12/\/\/\/----------------2-------------2-|
A|-2----------------------/14------------------------------/----------/----2-|
E|-0------------------------------------------------------3-------0--3-----0-|

e|--------------------------------------------------------------------------|
B|--------/---/---/---/--12--15-12---/-------/------------------------------|
G|------14--14--14--14-------------14--12--14-------------------------------|
D|---14---------------------------------------------------------------------|
A|--------------------------------------------------------------------------|
E|--------------------------------------------------------------------------|
                  2:25
                   Come On!           What do ya what?     what do you want?
e|---------------------------------------------------------------------------|
B|----------------------------10/8--------------------10/8-------------------|
G|----------------------------9-/7--------------------9-/7-------------------|
D|----------------------------7-/5--------------------7-/5-----------------2-|
A|-------------------------------------------------------------------------2-|
E|-------------------------------------------------------------------------0-|

   I want rock n roll       yes i do       Long Live Rock n Roll
e|--------------------------------------------------------------------------|
B|--------------------8/10-------10-10--------------------------------------|
G|--------------------7/9--------9--9---------------------------------------|
D|--------------------5/7--------7--7---------------------------------------|
A|--------------------------------------------------------------------------|
E|--------------------------------------------------------------------------|

Solo

2:37

e|--------------------------------------------------------------------------|
B|--------------------------------------------------------/-----------------|
G|------------------------------------------------------/-------------------|
D|-----/--/-----/-----5-7-5---------------------------/---------------------|
A|----5--7--5--7----7--------X/--5-4-5/\/-4-5-4-5-4-5-----------------------|
E|--------------------------------------------------------------------------|

2:46

e|-------/------------------------------------------------------------------|
B|----15---15-(15)-(15)--(15)-12-----------------------------------/--------|
G|-------------------------------14-(14)-12----12-14-14-14-14-14-12---------|
D|------------------------------------------14------------------------------|
A|--------------------------------------------------------------------------|
E|--------------------------------------------------------------------------|

      Tr. + depress whamy bar
e|-----------------------------------------------------------------------/--|
B|-------------------------------12-12-12-12-x-12/14---12-12-12-12-14---15--|
G|---(0)-------------------------12-12-12-12-x-12/14---12-12-12-12-14-------|
D|-------------------------------12-12-12-12-x-12/14---12-12-12-12-14-------|
A|--------------------------------------------------------------------------|
E|--------------------------------------------------------------------------|
        yu really gotta listen to the song to get this part
e|---------------------------------------------------------------------------|
B|----15-12-----/---/--/--/--/--/--/-----------------------------------------|
G|----------12-14-14-14-14-14-14--12-----------------------------------------|
D|---------------------------------------------------------------------------|
A|---------------------------------------------------------------------------|
E|---------------------------------------------------------------------------|

Chorus
3:04
e|-----------------------------------------------------------------------|
B|-----------------------------------------------------------------------|
G|-----------------------------------------------------------------------|
D|-------5-2-4-2-0-2------5-2-4-2-0-2-----5-2-4-2-0-2-----5-2-4-2-0-2----|
A|--3-3---------------3-3------------------------------------------------|
E|------------------------------------0-0-------------0-0----------------|

e|-----------------------------------------------------------------------|
B|-----------------------------------------------------------------------|
G|-----------------------------------------------------------------------|
D|-------5-2-4-2-0-2------5-2-4-2-0-2-----5-2-4-2-0-2-----5-2-4-2-0-2----|
A|--3-3---------------3-3------------------------------------------------|
E|------------------------------------0-0-------------0-0----------------|

   We got the power..
e|-----------------------------------------------------------------------|
B|-----------------------------------------------------------------------|
G|-----------------------------------------------------------------------|
D|-------5-2-4-2-0-2------5-2-4-2-0-2-----5-2-4-2-0-2-----5-2-4-2-0-2----|
A|--0-0---------------0-0-------------3-3-------------3-3----------------|
E|-----------------------------------------------------------------------|


Outro
3:31
e|--------------------------------------------------------------------|
B|---5-5-5-5--3-3---------------------3-5-----------------------------|
G|---4-4-4-4--2-2-------4-4-4-4-2-----2-4---2-2-----------------------|
D|---2-2-2-2--0-0-------4-4-4-4-2-----0-0---2-2-----------------------|
A|----------------------2-2-2-2-0-----------0-0-----------------------|
E|--------------------------------------------------------------------|
Suggest correction
Creating personal tab
Creating personal tab
You can edit any tab online and save it as your Personal.

You can edit, replace or remove any tab part or add personal notes – all changes will be seen only by you.

Personal tabs can be accessed anytime from any device, even offline.
Learn more »
comments
print report bad tab
4 comments total. Showing first comments.
0 reply
Campbell22 70 Dec 02, 2006 05:26 AM

ROCK ON !

0 reply
paulie99 50 Feb 01, 2007 03:32 PM

you ****in SUCK & COPY, YOU SHIT

Thats why i kicked you ****in ASS!

0 reply
tdeadder 10 Feb 21, 2014 01:15 PM

why the hell is this tab being blocked by the publisher, WTF

guest
You may want to rate the tab now too:
select rating
Wanna post a correction for this tab? Suggest correction