Oops, an error
Loading. Please wait.

Rock Of Ages tab

version 4
version 4

Whole song

Interactive

Video

36,769 views 75 this week
6 commentsread comments
1 2 3 4 5
x 16
add to favorites
×
Save as Personal and add changes to this tab that will be seen only by you. Learn more ›
×
You can save this tab as Personal to edit and correct it or add notes. All changes will be seen only by you. Learn more »
launch autoscroll
font size
0
reset
how to read this tab
guitar tuner
backing track
0:00
0:00
edit
Autoscroll
slow
fast
+/-
esc
set tempo
stop
Author
Difficulty
I’m not 100% on the Solo but I’m confident on the rest.


Rock Of Ages
Def Leppard
Pyromania-1983(Allen, Clark, Collen, Elliot, Savage, Willis)
Tabbed by True_Bacon22

Intro

0:11                               0:16
e|-------------------------|--------------------------|
b|---5-5-5--5--3—-3vvvvv---|----------------3-5--5----|
g|---4-4-4--4--2--2vvvv----|--4-4-4--4--2---2—4--4----|
d|-------------------------|--4-4-4--4--2-------------|
a|-------------------------|--------------------------|
e|-------------------------|--------------------------|

0:19               0:20
e|------------|---------------------|
b|--5/3/5/3---|-----5-5-5--3--3—-3--|
g|--4/2/4/2---|-----4-4-4--2--2—-2--|
d|------------|---------------------|
a|------------|---------------------|
e|------------|---------------------|

0:25                              0:28
e|------------------------|---------------------|
b|------------------3--5--|----------5-----3----|
g|---4-4-4—-4--2----2--4--|------2/4---4---2----|
d|---4-4-4--4--2----------|---------------------|
a|------------------------|-2-------------------|
e|------------------------|-0-------------------|


Verse 1
0:29                               0:34
e|-------------------------|--------------------------|
b|---5-5-5--5--3—-3vvvvv---|------------------3--5----|
g|---4-4-4--4--2--2vvvv----|--4-4-4--4--2-----2-—4----|
d|-------------------------|--4-4-4--4--2------------2|
a|-------------------------|-------------------------2|
e|-------------------------|-------------------------0|

Verse 2
0:57                                1:03
e|-------------------------|---------------------------|
b|--10--8------10--8-------|---8/10----10-10--8--------|
g|--9---7------9---7-------|---7/9-----9--9---7--------|
d|---------------------9---|-----------------------9---|
a|---------------------7---|-----------------------7---|
e|---------------------0---|-----------------------0---|

Then there’s a pause and then once again

Verse 2

1:17                               1:24
e|-------------------------|---------------------------|
b|--10--8------10--8-------|---8/10----10-10--8--------|
g|--9---7------9---7-------|---7/9-----9--9---7--------|
d|---------------------9---|-----------------------9---|
a|---------------------7---|-----------------------7---|
e|---------------------0---|-----------------------0---|

Bridge
1:28
e|--------------|
b|--------------|
g|--------------|
d|--------------|
a|--------------|
e|--3-3-3-3-3---|

Chorus
1:31                                1:35
e|---------------------------------|----------------------------------|
b|---------------------------------|----------------------------------|
g|---------------------------------|----------------------------------|
d|------5-2-4-2-0-2----5-2-4-2-0-2-|----5-2-4-2-0-2-----5-2-4-2-0-2---|
a|---3---------------3-------------|----------------------------------|
e|---------------------------------|-0-----------------0--------------|

  1:40                              1:44
e|---------------------------------|----------------------------------|
b|---------------------------------|----------------------------------|
g|---------------------------------|----------------------------------|
d|------5-2-4-2-0-2----5-2-4-2-0-2-|----5-2-4-2-0-2-----5-2-4-2-0-2---|
a|---3---------------3-------------|----------------------------------|
e|---------------------------------|-0-----------------0--------------|

  1:49
e|--------------------------------------------------------------------|
b|--------------------------------------------------------------------|
g|--------------------------------------------------------------------|
d|-----2---4—-2--0-2-----2---4—-2-—0—2------5--4-2-0-2-----5---4-2-0-2|
a|-0-0---0-----------0-0---0----------3--3----3--------3-3---3--------|
e|--------------------------------------------------------------------|


Verse 1  
1:58                      2:02
e|-------------------------|-------------------------|
b|---5-5-5--5--3—-3vvvvv---|-----------------3--5----|
g|---4-4-4--4--2--2vvvv----|--4-4-4--4--2----2-—2----|
d|-------------------------|--4-4-4--4--2-----------2|
a|-------------------------|------------------------2|
e|-------------------------|------------------------0|

Fill
 2:11            2:16          2:18
e|--------------|-------------|--------|
b|--------------|-------------|--------|
g|--------------|-------------|--------|
d|--2WB---------|-------------|--------|
a|--2WB---------|3p0----------|--------|
e|--0WB---------|-------------|3p0-----|

2:21
e|----------------------------------------------------------|
b|-----------------------------------------15b17—16—16------|
g|---------14b16—14b16-14b16-14b16--16-16--------------14b16|
d|-14--14---------------------------------------------------|
a|----------------------------------------------------------|
e|----------------------------------------------------------|

Verse 2
 2:25                             2:31
e|--------------------------|---------------------------|
b|--10--8-------10--8-------|-----8/10---10-10--8-------|
g|--9---7-------9---7-------|-----7/9----9--9---7-------|
d|----------------------9---|------------------------9--|
a|----------------------7---|------------------------7--|
e|----------------------0---|------------------------0--|

Solo
  2:36                           2:41
e|-----------------------------|------------------------------|
b|-----------------------------|------------------------------|
g|-----------------------------|------------------------------|
d|-------------------5---7---5-|------------------------------|
a|--5--7--5--7----7------------|---5--4--5—--4—-5--4--5--4--5-|
e|-----------------------------|------------------------------|

  2:45
e|-------------------------------------------------------------------|
b|--12---15b17-----12------------------------------------------------|
g|--12------------------16-14-12----12-14b16-14b16-14b16-14b16-14-12-|
d|--12---------------------------14----------------------------------|
a|-------------------------------------------------------------------|
e|-------------------------------------------------------------------|

  2:49
e|--------------------------------------------------------------|
b|---------------------------------------0-----12—--12—--12---12|
g|-----12--0---12-0-12-11-0-12-10-0-12-0-0-----12---12—--12---12|
d|-14------------------------------------0-----12—--12---12---12|
a|--------------------------------------------------------------|
e|--------------------------------------------------------------|

  2:58
e|-------------------------------------------------------|
b|-12-12---12-12--12--14-------14-14---14-14---14-16-14--|
g|-12-12---12-12--12--14-------14-14---14-14---14-16-14--|
d|-12-12---12-12--12--14-------14-14---14-14---14-16-14--|
a|-------------------------------------------------------|
e|-------------------------------------------------------|

  3:00
e|------------------------------------------------------------------|
b|-----15b17---12---------------------------------------------------|
g|----------------14-12----12-14b16—14-12------14b14----14-12-----12|
d|-----------------------14-----------------14-------14--------14---|
a|------------------------------------------------------------------|
e|-0----------------------------------------------------------------|
end Solo

 Chorus
 3:04                              3:08
e|---------------------------------|----------------------------------|
b|---------------------------------|----------------------------------|
g|---------------------------------|----------------------------------|
d|------5-2-4-2-0-2----5-2-4-2-0-2-|----5-2-4-2-0-2-----5-2-4-2-0-2---|
a|---3---------------3-------------|----------------------------------|
e|---------------------------------|-0-----------------0--------------|

  3:13                              3:17
e|---------------------------------|----------------------------------|
b|---------------------------------|----------------------------------|
g|---------------------------------|----------------------------------|
d|------5-2-4-2-0-2----5-2-4-2-0-2-|----5-2-4-2-0-2-----5-2-4-2-0-2---|
a|---3---------------3-------------|----------------------------------|
e|---------------------------------|-0-----------------0--------------|

  3:22
e|--------------------------------------------------------------------|
b|--------------------------------------------------------------------|
g|--------------------------------------------------------------------|
d|-----2---4—-2--0-2-----2---4—-2-—0—2------5--4-2-0-2-----5---4-2-0-2|
a|-0-0---0-----------0-0---0----------3--3----3--------3-3---3--------|
e|--------------------------------------------------------------------|

  3:31                      3:35                       3:39
e|-------------------------|--------------------------|------------|
b|---5-5-5--5--3—-3vvvvv---|----------------3-5--5----|--5/3/5/3---|
g|---4-4-4--4--2--2vvvv----|--4-4-4--4--2---2—4--4----|--4/2/4/2---|
d|-------------------------|--4-4-4--4--2-------------|------------|
a|-------------------------|--------------------------|------------|
e|-------------------------|--------------------------|------------|

  3:40                      3:45
e|-------------------------|------------------------------|
b|---5-5-5--5--3--3--------|------------------3--5--------|
g|---4-4-4--4--2--2vvvv----|--4-4-4--4--2-----2—-4---2-2--|
d|-------------------------|--4-4-4--4--2------------2-2--|
a|-------------------------|-------------------------0-0--|
e|-------------------------|------------------------------|


WB=Whammy Bar
P=Pull Off
B=Bend

            
            
Suggest correction
Creating personal tab
Creating personal tab
You can edit any tab online and save it as your Personal.

You can edit, replace or remove any tab part or add personal notes – all changes will be seen only by you.

Personal tabs can be accessed anytime from any device, even offline.
Learn more »
comments
print report bad tab
6 comments total. Showing first comments.
+3 reply
simmons100 31 Jul 03, 2007 09:51 AM

good

+4 reply
shadow1422 10 Nov 30, 2008 05:32 AM

great tab, i think the solo is really good, and besides a few errors withch lets b honest even def leppard makes onstage, it sounds great. bout 98% correct for the whole thing easily *****. btw i lov how u included the times, thats allways a bonus.=)

0 reply
eaglesfan8125 10 Apr 06, 2009 05:42 PM

olo
2:36 2:41
e|-----------------------------|------------------------------|
b|-----------------------------|------------------------------|
g|-----------------------------|------------------------------|
d|-------------------5---7---5-|------------------------------|
a|--5--7--5--7----7------------|---5--4--5—--4—-5--4--5--4--5-|
e|-----------------------------|------------------------------|
I think this whole part is pretty much pinch harmonics, i could be wrong though, but when i do it, it sounds good

guest
You may want to rate the tab now too:
select rating
Wanna post a correction for this tab? Suggest correction