Oops, an error
Loading. Please wait.

Rock Rock Till You Drop tab

version 1
version 1

Whole song

Interactive

1,072 views 33 this week
no commentswrite comment
1 2 3 4 5
2 more votes to show rating
add to favorites
×
Save as Personal and add changes to this tab that will be seen only by you. Learn more ›
×
You can save this tab as Personal to edit and correct it or add notes. All changes will be seen only by you. Learn more »
launch autoscroll
font size
0
reset
how to read this tab
guitar tuner
edit
Autoscroll
slow
fast
+/-
esc
set tempo
stop
Author
Unregistered
[Intro] (Riff A)

      (Let Ring)
e|-------------------------------------------------]
B|-------------------------------------------------]
G|----7-7----------4-------7-7----------4----------]
D|----7-7----------4-------7-7----------4----------]
A|-------------------------------------------------]
E|-------------------------------------------------]



e|----------------------------------------------------------------------------------------------------------]
B|-----2---2---------2---2---------2---2---------2---2---------2---2---------2---2--------------------------]
G|---4---4----4----4---4----4----4---4----4----4---4----4----4---4----4----4---4----4-----------------------]
D|-0-------------0-------------0-------------0-------------0-------------0--------------4-4-4-4-4-4-4-4-4-4-]
A|--------------------------------------------------------------------------------------2-2-2-2-2-2-2-2-2-2-]
E|----------------------------------------------------------------------------------------------------------]


[Verse/Chorus] (Riff B)

e|-------------------------------------------------------------------]
B|-------------------------------------------------------------------]
G|-------------------------------------------------------------------] x2
D|-2-2--2-2-2-----2-2--2-2-2--2-----2-2--2-2-2-----2-2--2-2-2-2-2-2-2]
A|-0-0--0-3-0-----0-0--0-3-0--3-----0-0--0-3-0-----0-0--0-3-0-3-0-3-0]
E|------------3--------------------------------3---------------------]


[Verse Interlude/Pre-Chorus] (Riff C)

e|---------------------------------------------------------]
B|---------------------------------------------------------]
G|---------------------------------------------------------]
D|--------2vv-----0----0---0-2--------2vv-----0----0---0-2-]
A|--0-0-0-------0----0---0------0-0-0-------0----0---0-----]
E|---------------------------------------------------------]


Then play Riff B 2x, then Riff C once, followed by Riff C 4x, Repeat, then proceed to solo


[Solo]

e|------------------------------------------------------------5-5----5-5----5-5-5v--------------------------|
B|------------------------------------------------------------5-5----5-5----5-5-5v--8-5---------------------|
G|-------------------------------5vv--5-7vvv--5vv--5-7vvv--7b-----7b-----7b-------------7-5-----------------|
D|----------------------3-0-3-0--5vv--5-7vvv--5vv--5-7vvv-----------------------------------7-5-------------|
A|-3-3--5-5-0-3--5-5--5-3-0-3-0-----0------------0----------------------------------------------7-5---------|
E|-3-3--5-5-0-3--5-5--5-----------------------------------------------------------------------------8-5-3-0-|

 As fast as you possibly can
 ____________________________________________________________________________________________
 *                                                                                          *
e|------------------------------------------------------------17--16--17--16--17--16--17--17--19-19vv-22v-24v|
B|--12-12-12-12-12-12-12-12-12-12-12-12-12-12-12-10/3\8-----17--17--17--17--17--17--17--17-------------------|
G|-----------------------------------------------------------------------------------------------------------|
D|-----------------------------------------------------------------------------------------------------------|
A|-----------------------------------------------------------------------------------------------------------|
E|-----------------------------------------------------------------------------------------------------------|


[Post-Solo]

e|----------------------------------------------------]
B|-3-3---2-3-5-3--2-3-3-3---2-3-5-3--2-3-3---2-3-5-3--]
G|-2-2---2-2-4-2--2-2-2-2---2-2-4-2--2-2-2---2-2-4-2--]
D|----------------------------------------------------]
A|----------------------------------------------------]
E|----------------------------------------------------]

Then Chorus 4x.


Enjoy! Please let me know if I need to fix anything.


Lyrics:


Hold onto your hat, hold onto your heart
Ready, get set to tear this place apart
Don't need a ticket, only place in town
That'll take you up to heaven and never bring you down
Anything goes! Anything goes!

Women to the left, Women to the right
There to entertain and take you thru the night
So grab a little heat and come along with me
'Cause your mama don't mind what your mama don't see
Anything goes! Anything goes!

Rock! Rock! Till you drop
Rock! Rock! Never stop
Rock! Rock! Till you drop
I say Rock! Rock! To the top

Ridin' into danger, laughin' all the way
Fast, free and easy, livin' for today
Gotta lip service, get it while you can
Hot, sweat 'n' nervous love on demand
Anything goes! Anything goes!

Rock! Rock! Give it to me
It's what I got goin' thru' me
Don't ever stop do it to me
Yeah, Rock! Rock! You really move me

Hold on, hold on, hold tight
We're gonna rock tonight
Too loud man, too loud'



************************************

| b  Bend
| /  Slide up
| \  Slide down

************************************

            
            
Suggest correction
Creating personal tab
Creating personal tab
You can edit any tab online and save it as your Personal.

You can edit, replace or remove any tab part or add personal notes – all changes will be seen only by you.

Personal tabs can be accessed anytime from any device, even offline.
Learn more »
Give kudos to tab author, rate the tab!
1 2 3 4 5
comments
print report bad tab
guest
Wanna post a correction for this tab? Suggest correction