Oops, an error
Loading. Please wait.

Rocket bass

version 1
version 1

Whole song

Interactive

2,839 views 1 this week
2 commentsread comments
1 2 3 4 5
x 5
add to favorites
×
Save as Personal and add changes to this tab that will be seen only by you. Learn more ›
×
You can save this tab as Personal to edit and correct it or add notes. All changes will be seen only by you. Learn more »
launch autoscroll
font size
0
reset
guitar tuner
edit
Autoscroll
slow
fast
+/-
esc
set tempo
stop
def leppard
rocket
tabbed by saturns_bassman


intro:
g|-----||
d|-----||play 17 times
a|-----||
e|-2-0-||

verse:
g|-----||
d|-----||play 25 times
a|-----||
e|-2-0-||

pre-chorus:
g|-------------------------------------------------------------||
d|-----------------------------------000000000000--------------||
a|-0000000000000000-2222222222222222---------------------------||
e|------------------------------------------------000000000000-||

chorus:
g|----------------------------------------------------------------||
d|-----------------------------0------------------------------0*--||
a|---------------0---------------0---------------0----------------||
e|-22---2---22-----0--22---2-------0---22---22-----0---22--2------||

chorus break:
g|-----||
d|-----||play 33 times
a|-----||
e|-2-0-||

verse 2:
(guitar-drums-load up-STUN!)
g|-----------------||
d|-----------------||
a|-----------------||
e|-00---0---00--2\-||

play chorus break
intro(play chorus break again)
pre-chorus
chorus
rest 4 measures
interlude(intro)
pre-chorus
chorus(dont play last D)

then this before ending
g|-----------------||
d|---------7-6-----||
a|-5-5-4-----------||
e|-------5------0--||

ending:                                            (rocket!...yea...)
g|----------------------------------------------------------||
d|---------------------------------------0000---------------||
a|-------------------00-----------------------0000----------||
e|-2222222222222222-----00-222222222222---------------22--2-||

its kinda tricky but just listen for timein enjoy!!

            
            
Suggest correction
Creating personal tab
Creating personal tab
You can edit any tab online and save it as your Personal.

You can edit, replace or remove any tab part or add personal notes – all changes will be seen only by you.

Personal tabs can be accessed anytime from any device, even offline.
Learn more »
comments
print report bad tab
2 comments total.
0 reply
frankstit4tat 10 Sep 14, 2015 02:43 PM

why you suck i need this

guest
You may want to rate the tab now too:
select rating
Wanna post a correction for this tab? Suggest correction