Oops, an error
Loading. Please wait.

Rocket tab

version 2
version 2

Whole song

Interactive

193 views 1 this week
1 commentread comment
1 2 3 4 5
3 more votes to show rating
add to favorites
×
Save as Personal and add changes to this tab that will be seen only by you. Learn more ›
×
You can save this tab as Personal to edit and correct it or add notes. All changes will be seen only by you. Learn more »
launch autoscroll
font size
0
reset
how to read this tab
guitar tuner
edit
Autoscroll
slow
fast
+/-
esc
set tempo
stop
Author
Difficulty
Rocket by Def Leppard


Main Riff

  Form Chord Bmaj Add4
e|----------------|--------0-------|----------------|--------0-------|
B|--4-----4-----4-|------4---4-----|--4-----4-----4-|------4---4-----|
G|----4-----4-----|4---4-------4---|----4-----4-----|4---4-------4---|
D|------4-----4---|--4-----------4-|------4-----4---|--4-----------4-|
A|2---------------|----------------|2---------------|----------------|
E|----------------|----------------|----------------|----------------|


Verse 1

White lights, strange city
Mad music (All around)
Midnight, street magic,
Crazy people (Crazy sound)

  Form Chord Bmaj Add4
e|----------------|--------0-------|----------------|--------0-------|
B|--4-----4-----4-|------4---4-----|--4-----4-----4-|------4---4-----|
G|----4-----4-----|4---4-------4---|----4-----4-----|4---4-------4---|
D|------4-----4---|--4-----------4-|------4-----4---|--4-----------4-|
A|2---------------|----------------|2---------------|----------------|
E|----------------|----------------|----------------|----------------|

Jack Flash, Rocket Man
Sergeant Pepper and the band
Ziggy, Benny and the Jets
Ah, take a rocket
We just got to fly
 
Pre-Chours

  A5                                B5               B7
e|----------------|----------------|----------------|----------------|
B|----------------|----------------|----------------|----------------|
G|2~~~~~~~~~~~~~2-|2~~~~~~~~~~~~~4-|4~~~~~~~~~~~~~2-|2~~~~~~~~~~~~~~~|
D|2~~~~~~~~~~~~~2-|2~~~~~~~~~~~~~4-|4~~~~~~~~~~~~~4-|4~~~~~~~~~~~~~~~|
A|0~~~~~~~~~~~~~0-|0~~~~~~~~~~~~~2-|2~~~~~~~~~~~~~2-|2~~~~~~~~~~~~~~~|
E|----------------|----------------|----------------|----------------|

  D5                                E5
e|----------------|----------------|----------------|----------------|
B|3~~~~~~~~~~~~~~~|~~~~~~~~~~~~~~~~|----------------|----------------|
G|2~~~~~~~~~~~~~~~|~~~~~~~~~~~~~~~~|----------------|----------------|
D|0~~~~~~~~~~~~~~~|~~~~~~~~~~~~~~~~|2~~~~~~~~~~~~~~~|~~~~~~~~~~~~~~~~|
A|----------------|----------------|2~~~~~~~~~~~~~~~|~~~~~~~~~~~~~~~~|
E|----------------|----------------|0~~~~~~~~~~~~~~~|~~~~~~~~~~~~~~~~|

Chorus

  F#5                                                A5      E5
e|----------------|----------------|----------------|----------------|
B|----------------|----------------|----------------|----------------|
G|----------------|----------------|----------------|2~~~~~~~--------|
D|4-4-----------x-|4-4-------------|4-4-------------|2~~~~~~~2~~~~~~~|
A|4-4-----------x-|4-4-------------|4-4-------------|0~~~~~~~2~~~~~~~|
E|2-2-----------x-|2-2-------------|2-2-------------|--------0~~~~~~~|

  F#5                               D5               A5      E5
e|----------------|----------------|----------------|----------------|
B|----------------|--------------33|3~~~~~~~~~~~~~~~|----------------|
G|----------------|--------------22|2~~~~~~~~~~~~~~~|2~~~~~~~--------|
D|4-4-----------4-|4-4-----------00|0~~~~~~~~~~~~~~~|2~~~~~~~2~~~~~~~|
A|4-4-----------4-|4-4-------------|----------------|0~~~~~~~2~~~~~~~|
E|2-2-----------2-|2-2-------------|----------------|--------0~~~~~~~|

  F#5                                                A5     E5
e|----------------|----------------|----------------|----------------|
B|----------------|----------------|----------------|----------------|
G|----------------|----------------|----------------|2~~~~~~~--------|
D|4-4------------4|4---------------|4-4-------------|2~~~~~~~2~~~~~~~|
A|4-4------------4|4---------------|4-4-------------|0~~~~~~~2~~~~~~~|
E|2-2------------2|2---------------|2-2-------------|--------0~~~~~~~|

  F#5                               D5
e|----------------|----------------|----------------|----------------|
B|----------------|--------------33|3~~~~~~~~~~~~~~~|~~~~~~~~~~~~~~~~|
G|----------------|--------------22|2~~~~~~~~~~~~~~~|~~~~~~~~~~~~~~~~|
D|4-4-------------|4-------------00|0~~~~~~~~~~~~~~~|~~~~~~~~~~~~~~~~|
A|4-4-------------|4---------------|----------------|----------------|
E|2-2-------------|2---------------|----------------|----------------|


Because the instrumental break is so vague and scattered on notes,
I've never tried to attempt it. Normally I will improvise in either
the key of F or F#m. However, for some parts (all rhythm) I have been
able to discover what they are.


Part where reverse vocalization is at

Random guitar fill
e|12--------------|14--------------|15--------------|17----15----14--|
B|15b-------------|17b-------------|18b-------------|20b---18b---17b-|
G|----------------|----------------|----------------|----------------|
D|----------------|----------------|----------------|----------------|
A|----------------|----------------|----------------|----------------|
E|----------------|----------------|----------------|----------------|

e|12--------------|11--------------|----------------|----------------|
B|15b-------------|14b-------------|----------------|----------------|
G|----------------|----------------|----------------|----------------|
D|----------------|----------------|----------------|----------------|
A|----------------|----------------|----------------|----------------|
E|----------------|----------------|----------------|----------------|

  E5               F#5      
e|----------------|----------------|----------------|----------------|
B|----------------|----------------|----------------|----------------|
G|----------------|----------------|----------------|----------------|
D|2-2-------------|4-4-------------|2-2-------------|----4~~~~~~~~~~~|
A|2-2-------------|4-4-------------|2-2-------------|x---4~~~~~~~~~~~|
E|0-0-------------|2-2-------------|0-0-------------|x---2~~~~~~~~~~~|

  E5               F#5              G5               A5
e|----------------|----------------|----------------|----------------|
B|----------------|----------------|----------------|----------------|
G|----------------|----------------|----------------|----------------|
D|2---------------|4---------------|5---------------|7---------------|
A|2---------------|4---------------|5---------------|7---------------|
E|0---------------|2---------------|3---------------|5---------------|

                                    D5
e|----------------|----------------|----------------|----------------|
B|----------------|--------------33|3~~~~~~~~~~~~~~~|----------------|
G|----------------|--------------22|2~~~~~~~~~~~~~~~|----------------|
D|----------------|--------------00|0~~~~~~~~~~~~~~~|----------------|
A|----------------|----------------|----------------|----------------|
E|----------------|----------------|----------------|----------------|

Intro to solo
  E5      F#5
e|----------------|----------------|----------------|----------------|
B|----------------|----------------|----------------|----------------|
G|----------------|----------------|----------------|----------------|
D|2---2---2-------|--------------2-|2---2---4-------|----------------|
A|2---2-x-4-------|--------------2-|2---2-x-4-------|----------------|
E|0---0-x-2-------|----------------|0---0-x-2-------|----------------|

Rhythm played behind solo
  B5  E5                            A5  E5  
e|----------------|----------------|----------------|----------------|
B|----------------|----------------|----------------|----------------|
G|----------------|----------------|----------------|----------------|
D|4-------4-------|4-------4-------|2-------2-------|2-------2-------|
A|2---4---2---4---|2---4---2---4---|0---2---0---2---|0---2---0---2---|
E|----2-------2---|----2-------2---|----0-------0---|----0-------0---|


Pre-Chours
  A5                                B5               B7
e|----------------|----------------|----------------|----------------|
B|----------------|----------------|----------------|----------------|
G|2~~~~~~~~~~~~~2-|2~~~~~~~~~~~~~4-|4~~~~~~~~~~~~~2-|2~~~~~~~~~~~~~~~|
D|2~~~~~~~~~~~~~2-|2~~~~~~~~~~~~~4-|4~~~~~~~~~~~~~4-|4~~~~~~~~~~~~~~~|
A|0~~~~~~~~~~~~~0-|0~~~~~~~~~~~~~2-|2~~~~~~~~~~~~~2-|2~~~~~~~~~~~~~~~|
E|----------------|----------------|----------------|----------------|

  D5                                E5
e|----------------|----------------|----------------|----------------|
B|3~~~~~~~~~~~~~~~|~~~~~~~~~~~~~~~~|----------------|----------------|
G|2~~~~~~~~~~~~~~~|~~~~~~~~~~~~~~~~|----------------|----------------|
D|0~~~~~~~~~~~~~~~|~~~~~~~~~~~~~~~~|2~~~~~~~~~~~~~~~|~~~~~~~~~~~~~~~~|
A|----------------|----------------|2~~~~~~~~~~~~~~~|~~~~~~~~~~~~~~~~|
E|----------------|----------------|0~~~~~~~~~~~~~~~|~~~~~~~~~~~~~~~~|

Chours
  F#5                                                A5      E5
e|----------------|----------------|----------------|----------------|
B|----------------|----------------|----------------|----------------|
G|----------------|----------------|----------------|2~~~~~~~--------|
D|4-4-----------x-|4-4-------------|4-4-------------|2~~~~~~~2~~~~~~~|
A|4-4-----------x-|4-4-------------|4-4-------------|0~~~~~~~2~~~~~~~|
E|2-2-----------x-|2-2-------------|2-2-------------|--------0~~~~~~~|

  F#5                               D5               A5      E5
e|----------------|----------------|----------------|----------------|
B|----------------|--------------33|3~~~~~~~~~~~~~~~|----------------|
G|----------------|--------------22|2~~~~~~~~~~~~~~~|2~~~~~~~--------|
D|4-4-----------4-|4-4-----------00|0~~~~~~~~~~~~~~~|2~~~~~~~2~~~~~~~|
A|4-4-----------4-|4-4-------------|----------------|0~~~~~~~2~~~~~~~|
E|2-2-----------2-|2-2-------------|----------------|--------0~~~~~~~|

  F#5                                                A5     E5
e|----------------|----------------|----------------|----------------|
B|----------------|----------------|----------------|----------------|
G|----------------|----------------|----------------|2~~~~~~~--------|
D|4-4------------4|4---------------|4-4-------------|2~~~~~~~2~~~~~~~|
A|4-4------------4|4---------------|4-4-------------|0~~~~~~~2~~~~~~~|
E|2-2------------2|2---------------|2-2-------------|--------0~~~~~~~|

  F#5                               D5
e|----------------|----------------|----------------|----------------|
B|----------------|--------------33|3~~~~~~~~~~~~~~~|~~~~~~~~~~~~~~~~|
G|----------------|--------------22|2~~~~~~~~~~~~~~~|~~~~~~~~~~~~~~~~|
D|4-4-------------|4-------------00|0~~~~~~~~~~~~~~~|~~~~~~~~~~~~~~~~|
A|4-4-------------|4---------------|----------------|----------------|
E|2-2-------------|2---------------|----------------|----------------|


Chorus/Outro

F#5                                                A5      E5
e|----------------|----------------|----------------|----------------|
B|----------------|----------------|----------------|----------------|
G|----------------|----------------|----------------|2~~~~~~~--------|
D|4-4-4-4-4-4-4-4-|4-4-4-4-4-4-4-4-|4-4-4-4-4-4-4-4-|2~~~~~~~2~~~~~~~|
A|4-4-4-4-4-4-4-4-|4-4-4-4-4-4-4-4-|4-4-4-4-4-4-4-4-|0~~~~~~~2~~~~~~~|
E|2-2-2-2-2-2-2-2-|2-2-2-2-2-2-2-2-|2-2-2-2-2-2-2-2-|--------0~~~~~~~|

  F#5                               D5               A5      E5
e|----------------|----------------|----------------|----------------|
B|----------------|--------------33|3~~~~~~~~~~~~~~~|----------------|
G|----------------|--------------22|2~~~~~~~~~~~~~~~|2~~~~~~~--------|
D|4-4-4-4-4-4-4-4-|4-4-4-4-4-4-4-00|0~~~~~~~~~~~~~~~|2~~~~~~~2~~~~~~~|
A|4-4-4-4-4-4-4-4-|4-4-4-4-4-4-4---|----------------|0~~~~~~~2~~~~~~~|
E|2-2-2-2-2-2-2-2-|2-2-2-2-2-2-2---|----------------|--------0~~~~~~~|

  F#5                              
e|----------------|----------------|
B|----------------|----------------|
G|----------------|----------------|
D|4-4-------------|4---------------|
A|4-4-------------|4---------------|
E|2-2-------------|2---------------|



************************************
~  Sustain
b  Bend
************************************

            
            
Suggest correction
Creating personal tab
Creating personal tab
You can edit any tab online and save it as your Personal.

You can edit, replace or remove any tab part or add personal notes – all changes will be seen only by you.

Personal tabs can be accessed anytime from any device, even offline.
Learn more »
Give kudos to tab author, rate the tab!
1 2 3 4 5
comments
print report bad tab
1 comment total.
0 reply
sammytuli05 50 Jun 11, 2016 11:38 AM

omg, the intro is sooooooo wrong

guest
You may want to rate the tab now too:
select rating
Wanna post a correction for this tab? Suggest correction