Oops, an error
Loading. Please wait.

Tonight Tab

version 3
version 3

Whole song

  • Both guitars parts have been added throughout the ... Show more

Interactive

58 views 6 this week
no commentswrite comment
1 2 3 4 5
3 more votes to show rating
add to favorites
launch autoscroll
font size
0
reset
how to read this tab
guitar tuner
Autoscroll
slow
fast
+/-
esc
set tempo
stop
Help us to improve Ultimate-Guitar.com Take our survey!
×
Author
Difficulty
intermediate
About this tab version
Both guitars parts have been added throughout the song. Rhythm Guitar is missing from the solo. Was this info helpful? Yes No
-------------------------------------------------------------------------------
                             Tonight- Def Leppard
-------------------------------------------------------------------------------

Tuning: Standard Tuning


aaahhhaaahhh...Oooooh... 

[Intro]

Guitar 1

e|---------------------------------------------------------------------------|
B|--5-------5---------5-----5-----------0-----0------------------------------|
G|----5-------5-----5---------4-------2---------0-----5----7-------9---------|
D|------7-5-----5-4-----0-3-----3---2-------0--------------------------------|
A|0-------------------------------0------------------------------10---0------|
E|----------------------------------------3-------3/5---5/7--7/8-------------|

[Verse]


  I don't wanna play The waiting game And drift away Leavin' an illusion 

Guitar 1

e|---------------------------------------------------------------------------|
B|--5-------5---------5-----5-----------0-----0------------------------------|
G|----5-------5-----5---------4-------2---------0-----5----7-------9---------|
D|------7-5-----5-4-----0-3-----3---2-------0--------------------------------|
A|0-------------------------------0------------------------------10---0------|
E|----------------------------------------3-------3/5---5/7--7/8-------------|

I don't wanna hide It's foolish pride To close my eyes A touch away from wanting you 

Guitar 1
e|---------------------------------------------------------------------------|
B|--5-------5---------5-----5-----------0-----0------------------------------|
G|----5-------5-----5---------4-------2---------0-----5----7-------9---------|
D|------7-5-----5-4-----0-3-----3---2-------0--------------------------------|
A|0-------------------------------0------------------------------10---0------|
E|----------------------------------------3-------3/5---5/7--7/8-------------|

Guitar 1
e|----------0-------------------0-----------------------------------------|
B|-----1--0---1-0-1--------1--0---1--0--1---------------------------------|
G|------------------------------------------------------------------------|
D|---2------------------2-------------------------------------------------|
A|0-----------------0-----------------------------------------------------|
E|------------------------------------------------------------------------|

Guitar 2
e|------------------------------------------------------------------------|
B|------------------------------------------------------------------------|
G|------------------------------------------------------------------------|
D|------------------------------------------------------------------------|
A|-------3-----3--------------3-------3-----------------------------------|
E|-5-5-5---5-5---5--5-5-5-5-5---5-5-5---5---------------------------------|


Don't try to look away When we're face to face I see your eyes That animal emotion 

Guitar 1
e|------------------------------------------------------------------------------|
B|--5--------5-----------5-----5---------------0-----0--------------------------|
G|-----5--------5------5----------4---------2----------0-----5----7-------9-----| 
D|-------7--5-----5--4-----0-3------3----2---------0----------------------------|
A|0-----------------------------------0---------------------------------10---0--|
E|-----------------------------------------------3-------3/5---5/7--7/8---------|

You don't have to set Your tender trap It's in those eyes It's gonna happen anyway 

Guitar 1
e|------------------------------------------------------------------------------|
B|--5--------5-----------5-----5---------------0-----0--------------------------|
G|-----5--------5------5----------4---------2----------0-----5----7-------9-----| 
D|-------7--5-----5--4-----0-3------3----2---------0----------------------------|
A|0-----------------------------------0---------------------------------10---0--|
E|-----------------------------------------------3-------3/5---5/7--7/8---------|

Guitar 2
e|------------------------------------------------------------------------------|
B|--------------------------------------------------------------------8---------|
G|--------------------------------------------------------------/5/-7-----------|
D|------------------------------------------------------------------------------|
A|------------------------------------------------------------------------------|
E|------------------------------------------------------------------------------|

[Bridge]

 Movin' to the rhythm of your heartbeat Yeah

Guitar 1
e|-------------------------------------------------------|
B|------1-------------1-----------1---------1------------|
G|----2----------2------------2----------2---------------|
D|-------------------------------------------------------|
A|0------------------------------------------------------|
E|-----------3------------2------------1-----------------|

2nd Guitar
e|-------------------------------------------------------|
B|-------------------------------------------------------|
G|-------------------------------------------------------|
D|-------------------------------------------------------|
A|7--7--7--5--5--5--5--5--4--4--4--3--3--5--7------------|
E|5--5--5--3--3--3--3--3--2--2--2--1--1--3--5------------|
     *  *  *  *  *  *  *  *  *  *  *  *  *  *
I'm wantin', willin',    touchin' you  We'll be 

1st Guitar
e|------------------------0---3----3---------------------|
B|------------------------1---3----3---------------------|
G|------------------------2---0----0---------------------|
D|------------------------2---0----2---------------------|
A|------------------------0---2----3---------------------|
E|----------------------------3--------------------------|

2nd Guitar
e|-------------------------------------------------------|
B|-------------------------------------------------------|
G|-------------------------------------------------------|
D|------------------------2---4----5---------------------|
A|7--7--7--5--5--5--5--5--0---2----3---------------------|
E|5--5--5--3--3--3--3--3---------------------------------|
     *  *  *  *  *  *  *

  Movin' to the rhythm of your heartbeat Ooh babe

1st Guitar
e|-------------------------------------------------------|
B|------1-------------1-----------1---------1------------|
G|----2----------2------------2----------2---------------|
D|-------------------------------------------------------|
A|0------------------------------------------------------|
E|-----------3------------2------------1-----------------|

2nd Guitar
e|-------------------------------------------------------|
B|-------------------------------------------------------|
G|-------------------------------------------------------|
D|-------------------------------------------------------|
A|7--7--7--5--5--5--5--5--4--4--4--3--3--5--7------------|
E|5--5--5--3--3--3--3--3--2--2--2--1--1--3--5------------|
     *  *  *  *  *  *  *  *  *  *  *  *  *  *


  When you get that rhythm  Gonna move into your room 

2nd Guitar
e|-------------------3-----------------------------------|
B|-------------------3-----------------------------------|
G|2------------------0-----------------------------------|
D|2------------------0-------------2-------4------5------|
A|0------------------2-------------0-------2------3------|
E|-------------------3-----------------------------------|

[Chorus]

Tonight           Gimme love with no disguise   
e|---------------------------------------------------------------------------|
B|-------10--8---8--\7------------7---\6-------------------------------------|
G|--------9--7---7--\7------------7---\5-------------------------------------|
D|---------------------------------------------------------------------------|
A|----0----------------------------------------------------------------------|
E|---------------------------------------------------------------------------|

   Tonight        I see the fire in your eyes
e|---------------------------------------------------------------------------|
B|----------10--8----8--7----------7---6-------------------------------------|
G|-----------9--7----7--7----------7---5-------------------------------------|
D|---------------------------------------------------------------------------|
A|--0--0---------------------------------------------------------------------|
E|---------------------------------------------------------------------------|



  Tonight - So right this night could be dynamite

e|---------------------------------------------------------------------------|
B|---------5-------5------------5------5-------------------------------------|
G|------------5-------5-------5-----------4----------------------------------|
D|--------------7--5-----5--4-----0--3-------3-------------------------------|
A|--0--0---------------------------------------------------------------------|
E|---------------------------------------------------------------------------|
   Wait 'n' see, if it pleases you it pleases me
e|-0---------3------------0--------------------------------------------------|
B|-1---------3------------1--------------------------------------------------|
G|-2---------0------------2--------------------------------------------------|
D|-2---------0------------2--------------------------------------------------|
A|-0---------2------------0--------------------------------------------------|
E|-----------3---------------------------------------------------------------|


Guitar 1
e|--------------------------------------------------------------------------|
B|--------------------------------------------------------------------------|
G|--------------------------------------------------------------------------|
D|--------------------------------------------------------------------------|
A|-------3-----3--------------3-------3-------------------------------------|
E|-5-5-5---5-5---5--5-5-5-5-5---5-5-5---5-----------------------------------|

Guitar 2
e|--------------------------------------------------------------------------|
B|--------------5--\------------------7----\--------------------------------|
G|--------------5--\------------------7----\--------------------------------|
D|--------------5--\--------------------------------------------------------|
A|--------------------------------------------------------------------------|
E|--------------------------------------------------------------------------|


[Verse]

There's nothing I can say, it's no mystery 
e|--------------------------------------------------------------|
B|--5---------5--------------5-----5----------------------------|
G|-----5---------5--------5-----------4-------------------------|
D|-------7--5-------5--4-------0--3------3----------------------|
A|0-------------------------------------------------------------|
E|--------------------------------------------------------------|

   It's in your eyes, those eyes are where I wanted them
e|--------------------------------------------------------------|
B|------------0------0------------------------------------------|
G|---------2------------0-------5----7------------9-------------|
D|------2---------0---------------------------------------------|
A|---0----------------------------------------10-----0----------|
E|---------------3----------3/5----5/7---7/8--------------------|

   So give me heart 'n' soul, I lose control   Can't stop my eyes from fallin' into    fantasy
Guitar 1
e|----------------------------------------------------------------------------------------------|
B|--5-------5-----------5-------5---------------0--------0--------------------------------------|
G|----5-------5-------5------------4----------2-------------0-------------5-----7---------9-----|
D|------7-5-----5--4------0--3--------3-----2----------0----------------------------------------|
A|0---------------------------------------0--------------------------------------------10----0--|
E|--------------------------------------------------3-----------------3/5----5/7---7/8----------|

Guitar 2
e|----------------------------------------------------------------------------------------------|
B|------------------------------------------------------------------------------------8---------|
G|----------------------------------------------------------------------------/5/-7-------------|
D|----------------------------------------------------------------------------------------------|
A|----------------------------------------------------------------------------------------------|
E|----------------------------------------------------------------------------------------------|


Movin' to the rhythm of your heartbeat Ooh babe

1st Guitar
e|-------------------------------------------------------|
B|------1-------------1-----------1---------1------------|
G|----2----------2------------2----------2---------------|
D|-------------------------------------------------------|
A|0------------------------------------------------------|
E|-----------3------------2------------1-----------------|

2nd Guitar
e|-------------------------------------------------------|
B|-------------------------------------------------------|
G|-------------------------------------------------------|
D|-------------------------------------------------------|
A|7--7--7--5--5--5--5--5--4--4--4--3--3--5--7------------|
E|5--5--5--3--3--3--3--3--2--2--2--1--1--3--5------------|
     *  *  *  *  *  *  *  *  *  *  *  *  *  *


  When you get that rhythm  Gonna move into your room 

2nd Guitar
e|-------------------3-----------------------------------|
B|-------------------3-----------------------------------|
G|2------------------0-----------------------------------|
D|2------------------0-------------2-------4------5------|
A|0------------------2-------------0-------2------3------|
E|-------------------3-----------------------------------|


[Chorus]

Tonight           Gimme love with no disguise   
e|---------------------------------------------------------------------------|
B|-------10--8---8--\7------------7---\6-------------------------------------|
G|--------9--7---7--\7------------7---\5-------------------------------------|
D|---------------------------------------------------------------------------|
A|----0----------------------------------------------------------------------|
E|---------------------------------------------------------------------------|

   Tonight        I see the fire in your eyes
e|---------------------------------------------------------------------------|
B|----------10--8----8--7----------7---6-------------------------------------|
G|-----------9--7----7--7----------7---5-------------------------------------|
D|---------------------------------------------------------------------------|
A|--0--0---------------------------------------------------------------------|
E|---------------------------------------------------------------------------|

  Tonight - So right this night could be dynamite

e|---------------------------------------------------------------------------|
B|---------5-------5------------5------5-------------------------------------|
G|------------5-------5-------5-----------4----------------------------------|
D|--------------7--5-----5--4-----0--3-------3-------------------------------|
A|--0--0---------------------------------------------------------------------|
E|---------------------------------------------------------------------------|

   Wait 'n' see,        Check it out
e|-0---------3----0---3---------------0-0-0--3-3-3--0-0-0--3-3-3-------------|
B|-1---------3----1---3---------------1-1-1--3-3-3--1-1-1--3-3-3-------------|
G|-2---------0----2---0---------------2-2-2--0-0-0--2-2-2--0-0-0-------------|
D|-2---------0----2---0---------------2-2-2--0-0-0--2-2-2--0-0-0-------------|
A|-----------2----0---2---------------0-0-0--2-2-2--0-0-0--2-2-2-------------|
E|-----------3--------3----------------------3-3-3---------3-3-3-------------| 


[Solo]

Gutiar 1
e|------------------------------------------------------------------------------|
B|----8fbr 8fbr 8~~~-------------------------------8-------13-15fb-15fbr-13-----|
G|------------------------------------------5/7--9----9/14-------------------12-|
D|----------------------------------------7-------------------------------------|
A|--------------------------------------7---------------------------------------|
E|---------------------\3fbr 3fbr 3~~~------------------------------------------|

e|15fbr--15fbr---15~~~~---17-19-20-19-17-20fb~~--19-20--22fbr-22-22-22fbr-------|
B|------------------------------------------------------------------------------|
G|------------------------------------------------------------------------------|
D|------------------------------------------------------------------------------|
A|------------------------------------------------------------------------------|
E|------------------------------------------------------------------------------|

e|-------------------17---------------------------------------|
B|----------13-13-17----17--13\12-----------------------------|
G|-14-14-14-----------------------14~~~~----------------------|
D|------------------------------------------------------------|
A|------------------------------------------------------------|
E|------------------------------------------------------------|

[Chorus]

Tonight           Gimme love with no disguise   
e|---------------------------------------------------------------------------|
B|-------10--8---8--\7------------7---\6-------------------------------------|
G|--------9--7---7--\7------------7---\5-------------------------------------|
D|---------------------------------------------------------------------------|
A|----0----------------------------------------------------------------------|
E|---------------------------------------------------------------------------|

   Tonight        I see the fire in your eyes
e|---------------------------------------------------------------------------|
B|----------10--8----8--7----------7---6-------------------------------------|
G|-----------9--7----7--7----------7---5-------------------------------------|
D|---------------------------------------------------------------------------|
A|--0--0---------------------------------------------------------------------|
E|---------------------------------------------------------------------------|
   Tonight          I wanna win the greatest prize   
e|---------------------------------------------------------------------------|
B|----------10--8----8--7----------7---6-------------------------------------|
G|-----------9--7----7--7----------7---5-------------------------------------|
D|---------------------------------------------------------------------------|
A|--0--0---------------------------------------------------------------------|
E|---------------------------------------------------------------------------|

  Tonight - So right this night could be dynamite

e|---------------------------------------------------------------------------|
B|---------5-------5------------5------5-------------------------------------|
G|------------5-------5-------5-----------4----------------------------------|
D|--------------7--5-----5--4-----0--3---------------------------------------|
A|--0--0---------------------------------------------------------------------|
E|---------------------------------------------------------------------------|

   Wait 'n' see, if it pleases you it pleases me
e|-0---------3------------0--------------------------------------------------|
B|-1---------3------------1--------------------------------------------------|
G|-2---------0------------2--------------------------------------------------|
D|-2---------0------------2--------------------------------------------------|
A|-0---------2------------0--------------------------------------------------|
E|-----------3---------------------------------------------------------------|



************************************

| /   slide up
| \   slide down
| h   hammer-on
| p   pull-off
| ~   vibrato
| +   harmonic
| x   Mute note
| b   Bend
| pb  Pre-bend
| br  Bend release
| pbr Pre-bend release
| brb Bend release bend

************************************
Suggest correction
Give kudos to tab author, rate the tab!
1 2 3 4 5
comments
print report bad tab
guest
You may want to rate the tab now too:
select rating
Wanna post a correction for this tab? Suggest correction