Oops, an error
Loading. Please wait.

Too Late For Love bass

version 2
version 2

Whole song

Interactive

2,270 views 1 this week
no commentswrite comment
1 2 3 4 5
3 more votes to show rating
add to favorites
×
Save as Personal and add changes to this tab that will be seen only by you. Learn more ›
×
You can save this tab as Personal to edit and correct it or add notes. All changes will be seen only by you. Learn more »
launch autoscroll
font size
0
reset
guitar tuner
backing track
0:00
0:00
edit
Autoscroll
slow
fast
+/-
esc
set tempo
stop
Author
Difficulty
Generally on the internet i have just found the verse but the bridge has yet to  be
 You basically play the verse through everything but just after the chorus you have a bridge
thats what i thought was missing, and there is another break after the second bridge.  
to the song and you will know what i am talking about
Verse/intro/solo/chorus
G-----------------------9--------11-------12---11--------9--------|
D-------------------9/10----11/12----12/13---12------9/10-10------|
A---7--------------------------------------------------------7----|
E-----------------------------------------------------------------|
bridge
--------------------------------------------------|
-------10-------9-----7------5-----3-----3-----55-|
-0-0-0-----0-0----0-0---0--0---0-0---0-0---0-0----| Repeat once.
--------------------------------------------------|
break after second chorus, and bridge
------4-------------------------------------------|
--------5-4-4br-0----------------7---7------------|
-2-2----------------0-2--3-3---4---5----5/7-7-7-7-| x2
--------------------------------------------------|
if you have any questions/comments e-mail me weeklongs@yahoo.com

            
            
Suggest correction
Creating personal tab
Creating personal tab
You can edit any tab online and save it as your Personal.

You can edit, replace or remove any tab part or add personal notes – all changes will be seen only by you.

Personal tabs can be accessed anytime from any device, even offline.
Learn more »
Give kudos to tab author, rate the tab!
1 2 3 4 5
comments
print report bad tab
guest
You may want to rate the tab now too:
select rating
Wanna post a correction for this tab? Suggest correction