Oops, an error
Loading. Please wait.

Blind Bass Tab

version 1
version 1

Whole song

Interactive

98 views 1 this week
no commentswrite comment
1 2 3 4 5
please rate
add to favorites
launch autoscroll
font size
0
reset
guitar tuner
Tab Pro tools
  • play this tab
  • loop segment
  • change instrument
  • show fretboard
  • metronome
Autoscroll
slow
fast
+/-
esc
set tempo
stop
Contributor
Band- Default
Song- Blind

Intro:

G: -----------|-----------|-----------|-----------|                      
D: -----------|-----------|-----------|-----------|  
A: --0-----2--|--0---2----|--0-----2--|--0---2----|                      
E: ----2-0----|----0---2--|----2-0----|----0---2--|                    


Verse:

G: -----------------|------------------|-------------|-----------|
D: -----------------|------------------|-------------|-----------|  (repeat � 2)
A: --2-2--0p2-2--2--|--0-0--0-4-5-6----|-------------|--0---2----|
E: -----------------|------------------|--0-0--00-0--|----0---2--|


Chorus:

G: ------------|------------|                      G: ------------|-----------|
D: ------------|------------| (repeat � 3) then... D: ------------|-----------|
A: --5-5--7-7--|-------5-5--|                      A: --5-5--7-7--|--0---2----|
E: ------------|--3-3-------|                      E: ------------|----0---2--|


Solo:
***this bit starts half way through the guitar solo, when the backing comes in...***

G: -----------------|------------------|-------------|-----------|
D: -----------------|------------------|-------------|-----------|
A: --2-2--0p2-2--2--|--0-0--0-4-5-6----|-------------|--0---2----|
E: -----------------|------------------|--0-0--00-0--|----0---2--|

G: -----------------|------------------|-------------|-----------|-----------|
D: -----------------|------------------|-------------|-----------|-----------|
A: --2-2--0p2-2--2--|--0-0--0-4-5-6----|-------------|--0---2----|--0---2----|
E: -----------------|------------------|--0-0--00-0--|----0---2--|----0---2--|


Final Chrous:

G: ------------|------------|                      
D: ------------|------------| (repeat � 3)  
A: --5-5--7-7--|-------5-5--|                      
E: ------------|--3-3-------|                      

then.....

G: ------------|-----------|-----------|-----------|-----------|
D: ------------|-----------|-----------|-----------|-----------|
A: --5-5--7-7--|--0-----2--|--0---2----|--0-----2--|--0---2----|
E: ------------|----2-0----|----0---2--|----2-0----|----0---2--|


ORDER:

1. Intro,
2. Verse,
3. Chorus,
4. Verse,
5. Chorus,
   ***no bass for first half of guitar solo***
6. Solo ***2nd half***,
7. Final Chorus.
comments
We did not receive enough feedback on this tab! Please rate:
print report bad tab
1 2 3 4 5
I want to post or [tab]
guest
You may want to rate the tab now too:
select rating
Please do not post tabs as comments. Select "correction" instead!