Oops, an error
Loading. Please wait.

Break Down Doors tab

version 1
version 1

Whole song

by Default
207 views 1 this week
3 commentsread comments
1 2 3 4 5
3 more votes to show rating
add to favorites
×
Save as Personal and add changes to this tab that will be seen only by you. Learn more ›
×
You can save this tab as Personal to edit and correct it or add notes. All changes will be seen only by you. Learn more »
launch autoscroll
font size
0
reset
how to read this tab
guitar tuner
edit
Autoscroll
slow
fast
+/-
esc
set tempo
stop
Break Down Doors
Default
Elocation (2003)

Break Down Doors: written by Dallas Smith, Jeremy Hora, Dave Benedict, 
and Danny Craig

NOTE: I am not sure about the solo, but I think it's pretty close.  Just 
listen to the song and you should be able to figure it out.

GTR I - Drop D Tuning (e,B,G,D,A,D)
GTR II - Drop D Tuning (e,B,G,D,A,D)

Intro
  GTR I (Distortion)                                    2x
e|-------------------------------------------------------|
B|-------------------------------------------------------|
G|-7/9-------7/9---------------9\7-------9\7-------------|
D|-x-x-x-3-x-x-x-x-3-x-x-x-x-x-x-x-x-5-x-x-x-x-5-x-5h7-x-|
A|-5/7-x-3-x-5/7-x-3-x-x-x-x-x-7\5-x-5-x-7\5-x-5-x-5h7-x-|
D|-----x-3-x-----x-3-x-x-x-x-x-----x-5-x-----x-5-x-5h7-x-|
 |
 |GTR II (Distortion)
e|-------------------------------------------------------|
B|-------------------------------------------------------|
G|-7/9-------7/9---------------9\7-------9\7-------------|
D|-x-x-x-3-x-x-x-x-3-x-x-x-x-x-x-x-x-5-x-x-x-x-5-x-5h7-x-|
A|-5/7-x-3-x-5/7-x-3-x-x-x-x-x-7\5-x-5-x-7\5-x-5-x-5h7-x-|
D|-----x-3-x-----x-3-x-x-x-x-x-----x-5-x-----x-5-x-5h7-x-|

Verse
  GTR I                                                 2x
e|-------------------------------------------------------|
B|-------------------------------------------------------|
G|-7/9-------7/9---------------9\7-------9\7-------------|
D|-x-x-x-3-x-x-x-x-3-----------x-x-x-5-x-x-x-x-5-x-5h7-x-|
A|-5/7-x-3-x-5/7-x-3-----------7\5-x-5-x-7\5-x-5-x-5h7-x-|
D|-----x-3-x-----x-3---------------x-5-x-----x-5-x-5h7-x-|
 | . . . . . . . . .           . . . . . . . . . . . . .
 |GTR II
e|-------------------------------------------------------|
B|-------------------------------------------------------|
G|-7/9-------7/9---------------9\7-------9\7-------------|
D|-x-x-x-3-x-x-x-x-3-----------x-x-x-5-x-x-x-x-5-x-5h7-x-|
A|-5/7-x-3-x-5/7-x-3-----------7\5-x-5-x-7\5-x-5-x-5h7-x-|
D|-----x-3-x-----x-3---------------x-5-x-----x-5-x-5h7-x-|
   . . . . . . . . .           . . . . . . . . . . . . .

Pre Chorus
  GTR I
e|--------------------------------------------------------------------------|
B|--------------------------------------------------------------------------|
G|--------------------------------------------------------------------------|
D|-3-3-3------------------------3-3-3------------------------3-3-3----------|
A|-3-3-3-/7-7-7-5---------------3-3-3-/7-7-7-5---------------3-3-3-/7-7-7-5-|
D|-3-3-3------------------------3-3-3------------------------3-3-3----------|
 |
 |GTR II
e|--------------------------------------------------------------------------|
B|--------------------------------------------------------------------------|
G|--------------------------------------------------------------------------|
D|-3-3-3------------------------3-3-3------------------------3-3-3----------|
A|-3-3-3-/7-7-7-5---------------3-3-3-/7-7-7-5---------------3-3-3-/7-7-7-5-|
D|-3-3-3------------------------3-3-3------------------------3-3-3----------|

  GTR I
e|----------------------|
B|----------------------|
G|--------------7-------|
D|-3-3-3--------7-------|
A|-3-3-3-/7-7-7-5--/12\-|
D|-3-3-3-----------/12\-|
 |
 |GTR II
e|----------------------|
B|----------------------|
G|--------------7-------|
D|-3-3-3--------7-------|
A|-3-3-3-/7-7-7-5--/12\-|
D|-3-3-3-----------/12\-|

Chorus
  GTR I (Low Volume)                                              2x
e|-----------------------------------------------------------------|
B|-----------------------------------------------------------------|
G|-4/6-6-6-6-6-6-6-6-6-6-6-6-6-6-6-7-7-7-7-7-7-7-7-7-7-7-7-7-7-7-7-|
D|-x-x-x-x-x-x-x-x-x-x-x-x-x-x-x-x-x-x-x-x-x-x-x-x-x-x-x-x-x-x-x-x-|
A|-2/4-4-4-4-4-4-4-4-4-4-4-4-4-4-4-5-5-5-5-5-5-5-5-5-5-5-5-5-5-5-5-|
D|-----------------------------------------------------------------|
 |
 |GTR II
e|-----------------------------------------------------------------|
B|-----------------------------------------------------------------|
G|-2-2-2-2-2-2-2-2-2-2-2-2-2-2-2-2-4-4-4-4-4-4-4-4-----------------|
D|-2-2-2-2-2-2-2-2-2-2-2-2-2-2-2-2-4-4-4-4-4-4-4-4-0-0-0-0-0-0-0-0-|
A|-0-0-0-0-0-0-0-0-0-0-0-0-0-0-0-0-2-2-2-2-2-2-2-2-0-0-0-0-0-0-0-0-|
D|-------------------------------------------------0-0-0-0-0-0-0-0-|

  GTR I (Low Volume)
e|-----------------------------------------------------------------|
B|-----------------------------------------------------------------|
G|-5-5-5-5-5-5-5-5-5-5-5-5-5-5-5-5-7-7-7-7-7-7-7-7-7-7-7-7-7-7-7-7-|
D|-x-x-x-x-x-x-x-x-x-x-x-x-x-x-x-x-x-x-x-x-x-x-x-x-x-x-x-x-x-x-x-x-|
A|-3-3-3-3-3-3-3-3-3-3-3-3-3-3-3-3-5-5-5-5-5-5-5-5-5-5-5-5-5-5-5-5-|
D|-----------------------------------------------------------------|
 |
 |GTR II
e|-----------------------------------------------------------------|
B|-----------------------------------------------------------------|
G|-5-5-5-5-5-5-5-5-5-5-5-5-5-5-5-5-7-7-7-7-7-7-7-7-7-7-7-7-7-7-7-7-|
D|-5-5-5-5-5-5-5-5-5-5-5-5-5-5-5-5-7-7-7-7-7-7-7-7-7-7-7-7-7-7-7-7-|
A|-3-3-3-3-3-3-3-3-3-3-3-3-3-3-3-3-5-5-5-5-5-5-5-5-5-5-5-5-5-5-5-5-|
D|-----------------------------------------------------------------|

Intro
  GTR I (Distortion)                                    
e|-------------------------------------------------------|
B|-------------------------------------------------------|
G|-7/9-------7/9---------------9\7-------9\7-------------|
D|-x-x-x-3-x-x-x-x-3-x-x-x-x-x-x-x-x-5-x-x-x-x-5-x-5h7-x-|
A|-5/7-x-3-x-5/7-x-3-x-x-x-x-x-7\5-x-5-x-7\5-x-5-x-5h7-x-|
D|-----x-3-x-----x-3-x-x-x-x-x-----x-5-x-----x-5-x-5h7-x-|
 |
 |GTR II (Distortion)
e|-------------------------------------------------------|
B|-------------------------------------------------------|
G|-7/9-------7/9---------------9\7-------9\7-------------|
D|-x-x-x-3-x-x-x-x-3-x-x-x-x-x-x-x-x-5-x-x-x-x-5-x-5h7-x-|
A|-5/7-x-3-x-5/7-x-3-x-x-x-x-x-7\5-x-5-x-7\5-x-5-x-5h7-x-|
D|-----x-3-x-----x-3-x-x-x-x-x-----x-5-x-----x-5-x-5h7-x-|

Verse
  GTR I                                                 2x
e|-------------------------------------------------------|
B|-------------------------------------------------------|
G|-7/9-------7/9---------------9\7-------9\7-------------|
D|-x-x-x-3-x-x-x-x-3-----------x-x-x-5-x-x-x-x-5-x-5h7-x-|
A|-5/7-x-3-x-5/7-x-3-----------7\5-x-5-x-7\5-x-5-x-5h7-x-|
D|-----x-3-x-----x-3---------------x-5-x-----x-5-x-5h7-x-|
 | . . . . . . . . .           . . . . . . . . . . . . .
 |GTR II
e|-------------------------------------------------------|
B|-------------------------------------------------------|
G|-7/9-------7/9---------------9\7-------9\7-------------|
D|-x-x-x-3-x-x-x-x-3-----------x-x-x-5-x-x-x-x-5-x-5h7-x-|
A|-5/7-x-3-x-5/7-x-3-----------7\5-x-5-x-7\5-x-5-x-5h7-x-|
D|-----x-3-x-----x-3---------------x-5-x-----x-5-x-5h7-x-|
   . . . . . . . . .           . . . . . . . . . . . . .

Pre Chorus
  GTR I
e|--------------------------------------------------------------------------|
B|--------------------------------------------------------------------------|
G|--------------------------------------------------------------------------|
D|-3-3-3------------------------3-3-3------------------------3-3-3----------|
A|-3-3-3-/7-7-7-5---------------3-3-3-/7-7-7-5---------------3-3-3-/7-7-7-5-|
D|-3-3-3------------------------3-3-3------------------------3-3-3----------|
 |
 |GTR II
e|--------------------------------------------------------------------------|
B|--------------------------------------------------------------------------|
G|--------------------------------------------------------------------------|
D|-3-3-3------------------------3-3-3------------------------3-3-3----------|
A|-3-3-3-/7-7-7-5---------------3-3-3-/7-7-7-5---------------3-3-3-/7-7-7-5-|
D|-3-3-3------------------------3-3-3------------------------3-3-3----------|

  GTR I
e|----------------------|
B|----------------------|
G|--------------7-------|
D|-3-3-3--------7-------|
A|-3-3-3-/7-7-7-5--/12\-|
D|-3-3-3-----------/12\-|
 |
 |GTR II
e|----------------------|
B|----------------------|
G|--------------7-------|
D|-3-3-3--------7-------|
A|-3-3-3-/7-7-7-5--/12\-|
D|-3-3-3-----------/12\-|

Chorus
  GTR I (Low Volume)                                              4x
e|-----------------------------------------------------------------|
B|-----------------------------------------------------------------|
G|-4/6-6-6-6-6-6-6-6-6-6-6-6-6-6-6-7-7-7-7-7-7-7-7-7-7-7-7-7-7-7-7-|
D|-x-x-x-x-x-x-x-x-x-x-x-x-x-x-x-x-x-x-x-x-x-x-x-x-x-x-x-x-x-x-x-x-|
A|-2/4-4-4-4-4-4-4-4-4-4-4-4-4-4-4-5-5-5-5-5-5-5-5-5-5-5-5-5-5-5-5-|
D|-----------------------------------------------------------------|
 |
 |GTR II
e|-----------------------------------------------------------------|
B|-----------------------------------------------------------------|
G|-2-2-2-2-2-2-2-2-2-2-2-2-2-2-2-2-4-4-4-4-4-4-4-4-----------------|
D|-2-2-2-2-2-2-2-2-2-2-2-2-2-2-2-2-4-4-4-4-4-4-4-4-0-0-0-0-0-0-0-0-|
A|-0-0-0-0-0-0-0-0-0-0-0-0-0-0-0-0-2-2-2-2-2-2-2-2-0-0-0-0-0-0-0-0-|
D|-------------------------------------------------0-0-0-0-0-0-0-0-|

  GTR I (Low Volume)
e|-----------------------------------------------------------------|
B|-----------------------------------------------------------------|
G|-5-5-5-5-5-5-5-5-5-5-5-5-5-5-5-5-7-7-7-7-7-7-7-7-7-7-7-7-7-7-7-7-|
D|-x-x-x-x-x-x-x-x-x-x-x-x-x-x-x-x-x-x-x-x-x-x-x-x-x-x-x-x-x-x-x-x-|
A|-3-3-3-3-3-3-3-3-3-3-3-3-3-3-3-3-5-5-5-5-5-5-5-5-5-5-5-5-5-5-5-5-|
D|-----------------------------------------------------------------|
 |
 |GTR II
e|-----------------------------------------------------------------|
B|-----------------------------------------------------------------|
G|-5-5-5-5-5-5-5-5-5-5-5-5-5-5-5-5-7-7-7-7-7-7-7-7-7-7-7-7-7-7-7-7-|
D|-5-5-5-5-5-5-5-5-5-5-5-5-5-5-5-5-7-7-7-7-7-7-7-7-7-7-7-7-7-7-7-7-|
A|-3-3-3-3-3-3-3-3-3-3-3-3-3-3-3-3-5-5-5-5-5-5-5-5-5-5-5-5-5-5-5-5-|
D|-----------------------------------------------------------------|

Solo
  GTR I
e|-------------------------------------------------------------|
B|-10----------------------------------------------------------|
G|-12b---------------------12b-10----10b----10~10h12p10-9~-----|
D|--------------------------------12-----12---------------10-9-|
A|-------------------------------------------------------------|
D|-------------------------------------------------------------|
 |
 |GTR II
e|------------5---5-5------------------------------------------|
B|------------6---6-6------------------------------------------|
G|------------5---5-5------------------------------------------|
D|-5-3-0------7-x-7-7-5-3-0------5-3-0-3-5--5-3-0--------------|
A|-5-3-0-5----5-x-5-5-5-3-0-5----5-3-0-3-5--5-3-0-5------------|
D|-5-3-0--------x-----5-3-0------5-3-0-3-5--5-3-0--------------|
                                      
  GTR I
e|---------------------------------------------------------------|
B|------------------------13--13b13b13~131212b-10----------------|
G|---------------------/14--14-------------------12p11p10--1012b-|
D|-10p9--------------------------------------------------12------|
A|------10p9------9~---------------------------------------------|
D|-----------10p9------------------------------------------------|
 |
 |GTR II
e|----------------------------------5---5-5----------------------|
B|----------------------------------6---6-6----------------------|
G|----------------------------------5---5-5----------------------|
D|-5-3-0------5-3-0-3-5--5-3-0------7-x-7-7-5-3-0------5-3-0-3-5-|
A|-5-3-0-5----5-3-0-3-5--5-3-0-5----5-x-5-5-5-3-0-5----5-3-0-3-5-|
D|-5-3-0------5-3-0-3-5--5-3-0--------x-----5-3-0------5-3-0-3-5-|
                                                            
  GTR I (Dist. with Wah)
e|----------------------------------------15\|
B|(triplets)---------------------17b17b-17~--|
G|-13p12p10-(6x)---------17p16p14------------|
D|-------------------------------------------|
A|-------------------------------------------|
D|-------------------------------------------|
 |
 |GTR II
e|---------5-5-5-5-5-5-5-------5-5-----------|
B|---------6-6-6-6-6-6-6-------6-6-----------|
G|---------5-5-5-5-5-5-5-------5-5-----------|
D|-5-3-0---7-7-7-7-7-7-7-5-3-0-7-7-5-3-0-3-5-|
A|-5-3-0-5-5-5-5-5-5-5-5-5-3-0-5-5-5-3-0-3-5-|
D|-5-3-0-----------------5-3-0-----5-3-0-3-5-|

Pre Chorus
  GTR I (Distortion)
e|--------------------------------------------------------------------------|
B|--------------------------------------------------------------------------|
G|--------------------------------------------------------------------------|
D|-3-3-3------------------------3-3-3------------------------3-3-3----------|
A|-3-3-3-/7-7-7-5---------------3-3-3-/7-7-7-5---------------3-3-3-/7-7-7-5-|
D|-3-3-3------------------------3-3-3------------------------3-3-3----------|
 |
 |GTR II
e|--------------------------------------------------------------------------|
B|--------------------------------------------------------------------------|
G|--------------------------------------------------------------------------|
D|-3-3-3------------------------3-3-3------------------------3-3-3----------|
A|-3-3-3-/7-7-7-5---------------3-3-3-/7-7-7-5---------------3-3-3-/7-7-7-5-|
D|-3-3-3------------------------3-3-3------------------------3-3-3----------|

  GTR I
e|----------------------|
B|----------------------|
G|--------------7-------|
D|-3-3-3--------7-------|
A|-3-3-3-/7-7-7-5--/12\-|
D|-3-3-3-----------/12\-|
 |
 |GTR II
e|----------------------|
B|----------------------|
G|--------------7-------|
D|-3-3-3--------7-------|
A|-3-3-3-/7-7-7-5--/12\-|
D|-3-3-3-----------/12\-|

Chorus
  GTR I (Low Volume)                                              4x
e|-----------------------------------------------------------------|
B|-----------------------------------------------------------------|
G|-4/6-6-6-6-6-6-6-6-6-6-6-6-6-6-6-7-7-7-7-7-7-7-7-7-7-7-7-7-7-7-7-|
D|-x-x-x-x-x-x-x-x-x-x-x-x-x-x-x-x-x-x-x-x-x-x-x-x-x-x-x-x-x-x-x-x-|
A|-2/4-4-4-4-4-4-4-4-4-4-4-4-4-4-4-5-5-5-5-5-5-5-5-5-5-5-5-5-5-5-5-|
D|-----------------------------------------------------------------|
 |
 |GTR II
e|-----------------------------------------------------------------|
B|-----------------------------------------------------------------|
G|-2-2-2-2-2-2-2-2-2-2-2-2-2-2-2-2-4-4-4-4-4-4-4-4-----------------|
D|-2-2-2-2-2-2-2-2-2-2-2-2-2-2-2-2-4-4-4-4-4-4-4-4-0-0-0-0-0-0-0-0-|
A|-0-0-0-0-0-0-0-0-0-0-0-0-0-0-0-0-2-2-2-2-2-2-2-2-0-0-0-0-0-0-0-0-|
D|-------------------------------------------------0-0-0-0-0-0-0-0-|

  GTR I (Distortion)                                              2x
e|-----------------------------------------------------------------|
B|-----------------------------------------------------------------|
G|-4/6-6-6-6-6-6-6-6-6-6-6-6-6-6-6-7-7-7-7-7-7-7-7-7-7-7-7-7-7-7-7-|
D|-x-x-x-x-x-x-x-x-x-x-x-x-x-x-x-x-x-x-x-x-x-x-x-x-x-x-x-x-x-x-x-x-|
A|-2/4-4-4-4-4-4-4-4-4-4-4-4-4-4-4-5-5-5-5-5-5-5-5-5-5-5-5-5-5-5-5-|
D|-----------------------------------------------------------------|
 |
 |GTR II
e|-----------------------------------------------------------------|
B|-----------------------------------------------------------------|
G|-2-2-2-2-2-2-2-2-2-2-2-2-2-2-2-2-4-4-4-4-4-4-4-4-----------------|
D|-2-2-2-2-2-2-2-2-2-2-2-2-2-2-2-2-4-4-4-4-4-4-4-4-0-0-0-0-0-0-0-0-|
A|-0-0-0-0-0-0-0-0-0-0-0-0-0-0-0-0-2-2-2-2-2-2-2-2-0-0-0-0-0-0-0-0-|
D|-------------------------------------------------0-0-0-0-0-0-0-0-|

  GTR I (Low Volume)
e|-----------------------------------------------------------------|
B|-----------------------------------------------------------------|
G|-5-5-5-5-5-5-5-5-5-5-5-5-5-5-5-5-7-7-7-7-7-7-7-7-7-7-7-7-7-7-7-7-|
D|-x-x-x-x-x-x-x-x-x-x-x-x-x-x-x-x-x-x-x-x-x-x-x-x-x-x-x-x-x-x-x-x-|
A|-3-3-3-3-3-3-3-3-3-3-3-3-3-3-3-3-5-5-5-5-5-5-5-5-5-5-5-5-5-5-5-5-|
D|-----------------------------------------------------------------|
 |
 |GTR II
e|-----------------------------------------------------------------|
B|-----------------------------------------------------------------|
G|-5-5-5-5-5-5-5-5-5-5-5-5-5-5-5-5-7-7-7-7-7-7-7-7-7-7-7-7-7-7-7-7-|
D|-5-5-5-5-5-5-5-5-5-5-5-5-5-5-5-5-7-7-7-7-7-7-7-7-7-7-7-7-7-7-7-7-|
A|-3-3-3-3-3-3-3-3-3-3-3-3-3-3-3-3-5-5-5-5-5-5-5-5-5-5-5-5-5-5-5-5-|
D|-----------------------------------------------------------------|


| .  palm mute
| /  slide up
| \  slide down
| h  hammer-on
| p  pull-off
| ~  vibrato
| +  harmonic
| x  Mute note
===============================================================================

            
            
Suggest correction
Creating personal tab
Creating personal tab
You can edit any tab online and save it as your Personal.

You can edit, replace or remove any tab part or add personal notes – all changes will be seen only by you.

Personal tabs can be accessed anytime from any device, even offline.
Learn more »
Give kudos to tab author, rate the tab!
1 2 3 4 5
comments
print report bad tab
3 comments total.
0 reply
shiick 10 Feb 17, 2010 06:08 AM

Great tab... any more default??

0 reply
sebar001 10 Dec 10, 2010 10:35 AM

hell yeah great band

0 reply
sebar001 10 Dec 10, 2010 10:49 AM

and an excellent tab!!!!!

guest
You may want to rate the tab now too:
select rating
Wanna post a correction for this tab? Suggest correction