Oops, an error
Loading. Please wait.

By Your Side Bass Tab

version 2
version 2

Whole song

290 views 1 this week
1 commentread comment
1 2 3 4 5
2 more votes to show rating
add to favorites
launch autoscroll
font size
0
reset
guitar tuner
Autoscroll
slow
fast
+/-
esc
set tempo
stop
Help us to improve Ultimate-Guitar.com Take our survey!
×
Author
Difficulty
intermediate
Tabbed by Jamie Harris

Verse
------------------------------------------|
-----6-7-9-----6-7-9----------------------|
--7---------7------------4-5-7-----4-5-7--|
----------------------5---------5---------|
Chorus
---------------------------------------------------|
---------------------------------------------------|
--7-7-7-7-7-7-7-7-5-5-5-5-5-5-5-5-4-4-4-4-4-4-4-4--|
---------------------------------------------------|

during the solo play the chorus part

please rate
Suggest correction
Give kudos to tab author, rate the tab!
1 2 3 4 5
comments
print report bad tab
1 comment total.
+1 reply
Teen Spirit 656 May 02, 2008 10:44 AM

Neat. Claymore, you are the fastest tabber I know :D and one of the best. Sweet mate, great song too..... Could you tab the song Break Down Doors? Thanx. ;)

guest
You may want to rate the tab now too:
select rating
Wanna post a correction for this tab? Suggest correction