Oops, an error
Loading. Please wait.

Caught In The Moment Tab

785 views 1 this week
no commentswrite comment
1 2 3 4 5
please rate
add to favorites
launch autoscroll
font size
0
reset
how to read this tab
guitar tuner
Autoscroll
slow
fast
+/-
esc
set tempo
stop
Help us to improve Ultimate-Guitar.com Take our survey!
×
Contributor
Difficulty
intermediate
----------------------------------------------------------------------------
                            caught in the moment - Default
-------------------------------------------------------------------------------
Tabbed by:JRFALKON
Email:N/A

Tuning:standard

intro,:
e|----------------------------------------------------------------------------|
B|-14-14-14-14-17-17-14-14-14-14-14-14-17-17-14-14-14-14-14-14-17-17-14-14-14-|
G|----------------------------------------------------------------------------|
D|----------------------------------------------------------------------------|
A|----------------------------------------------------------------------------|
E|----------------------------------------------------------------------------|

e|----------------------------------------------------------------------------|
B|-14-14-14-15-15--X2---------------------------------------------------------|
G|----------------------------------------------------------------------------|
D|----------------------------------------------------------------------------|
A|----------------------------------------------------------------------------|
E|----------------------------------------------------------------------------|

chorus:
e|----------------------------------------------------------------------------|
B|----------------------------------------------------------------------------|
G|----------------------------------------------------------------------------|
D|---7-777---222---4-444---222---7-777---222---4-444---222---7~---------------|
Al---7-777---222---4-444---222---7-777---222---4-444---222---7~---------------|
E|---5-555---000---2-222---000---5-555---000---2-222---000---5~---------------|

''i was waiting for you...., bass  chorus."
e|----------------------------------------------------------------------------|
B|----------------------------------------------------------------------------|
G|----------------------------------------------------------------------------|
D|----------------------------------------------------------------------------|
A|----------------------------------------------------------------------------|
E|----------------------------------------------------------------------------|

'somethings just have to stop...
e|-----------------------------------------------------------------------------|
B|-----------------------------------------------------------------------------|
G|-----------------------------------------------------------------------------|
D|--4444-7777-22222222----4444-7777- 22222222----------------------------------|
A|--4444-7777 -22222222--- 4444- 7777- 22222222--------------------------------|
E|--2222 -5555-00000000----2222-5555 -00000000---------------------------------|
                                                                                        ********
chorus:
e|----------------------------------------------------------------------------|
B|----------------------------------------------------------------------------|
G|----------------------------------------------------------------------------|
D|---7-777---222---4-444---222---7-777---222---4-444---222--------------------|
Al---7-777---222---4-444---222---7-777---222---4-444---222--------------------|
E|---5-555---000---2-222---000---5-555---000---2-222---000--------------------|

e|----------------------------------------------------------------------------|
B|----------------------------------------------------------------------------|
G|----------------------------------------------------------------------------|
D|---7-777---222---4-444---222---7~-------------------------------------------|
A|---7-777---222---4-444---222---7~-------------------------------------------|
E|---5-555---000---2-222 ---000---5~------------------------------------------|

the moment brought me you.....
e|----------------------------------------------------------------------------|
B|----5~---5/7---------5-5/7--------------------------------------------------|
G|-------------6/4------------4/2--4-4/6--------------------------------------|
D|----------------------------------------4/2~--------------7~----------------|
A|----------------------------------------------------------7~----------------|
E|----------------------------------------------------------5~----------------|

some things just have to stop.....
e|-----------------------------------------------------------------------------|
B|-----------------------------------------------------------------------------|
G|-----------------------------------------------------------------------------|
D|--4444-7777-22222222----4444-7777- 22222222----------------------------------|
A|--4444-7777 -22222222--- 4444- 7777- 22222222--------------------------------|
E|--2222 -5555-00000000----2222-5555 -00000000---------------------------------|
                                                                                       ********
chorus:
e|----------------------------------------------------------------------------|
B|----------------------------------------------------------------------------|
G|----------------------------------------------------------------------------|
D|---7-777---222---4-444---222---7-777---222---4-444---222--------------------|
Al---7-777---222---4-444---222---7-777---222---4-444---222--------------------|
E|---5-555---000---2-222---000---5-555---000---2-222---000--------------------|

the moment brought me laughter in a storm.....
e|------------------------l-l--------------------------------------------------|
B|------------------------l-l--------------------------------------------------|
G|------------------------l-l--------------------------------------------------|
D|-----55555555- 77777777- l-l--X3--22222222---55555555------------------------|
A|-----55555555--77777777-l-l------22222222---55555555-------------------------|
E|-----33333333--55555555-l-l------00000000---33333333-------------------------|

 solo:
e|---------------------------------------------------------------------------|
B|------------17-17-17-17--------------- 17-17-17b19------------17-17-17-17--|
G|-------14---------------16-15-14---16--------------16-----14---------------|
D|---------------------------------------------------------------------------|
A|---------------------------------------------------------------------------|
E|---------------------------------------------------------------------------|

e|----------------------------------------------------------------------------|
B|------------------------------------17-17-17-17---------------17-17-17b19---|
G|---16-15-14--14-16-16-16b18-14---14-------------16-15-14---16---------------|
D|----------------------------------------------------------------------------|
A|----------------------------------------------------------------------------|
E|----------------------------------------------------------------------------|

e|--------------------------------------------------------------------------|
B|-------------17-------17--------------------------------------------------|
G|--16----14------16-14----16-14--16-14-16-18-14-14-16-14~------------------|
D|--------------------------------------------------------------------------|
A|--------------------------------------------------------------------------|
E|--------------------------------------------------------------------------|

not what i wanted...
e|----------------------------------------------------------------------------|
B|----------------------------------------------------------------------------|
G|----------------------------------------------------------------------------|
D|---7-777---222---4-444---222---7-777---222---4-444---222--------------------|
Al---7-777---222---4-444---222---7-777---222---4-444---222--------------------|
E|---5-555---000---2-222---000---5-555---000---2-222---000--------------------|

e|----------------------------------------------------------------------------|
B|----------------------------------------------------------------------------|
G|----------------------------------------------------------------------------|
D|---7-777---222---4-444---222---7-777---222---4-444---222--------------------|
Al---7-777---222---4-444---222---7-777---222---4-444---222--------------------|
E|---5-555---000---2-222---000---5-555---000---2-222---000--------------------|

e|----------------------------------------------------------------------------|
B|----------------------------------------------------------------------------|
G|----------------------------------------------------------------------------|
D|---7-777---222---4-444---222---7-777---222---4-444---222--------------------|
Al---7-777---222---4-444---222---7-777---222---4-444---222--------------------|
E|---5-555---000---2-222---000---5-555---000---2-222---000--------------------|

the moment brought me you..........
e|----------------------------------------------------------------------------|
B|----------------------------------------------------------------------------|
G|----------------------------------------------------------------------------|
D|---7-777---222---4-444---222---7-777---222---4-444---222----7~--------------|
Al---7-777---222---4-444---222---7-777---222---4-444---222----7~--------------|
E|---5-555---000---2-222---000---5-555---000---2-222---000----5~--------------|
Suggest correction new What's this?
You can suggest a correction to this tab. Community and Mods will review your correction and vote to approve or reject it.
comments
We did not receive enough feedback on this tab! Please rate:
print report bad tab
1 2 3 4 5
guest
You may want to rate the tab now too:
select rating
Please do not post tabs as comments. Select "correction" instead!