Oops, an error
Loading. Please wait.

Count On Me Bass Tab

version 1
version 1

Whole song

Interactive

2,657 views 6 this week
2 commentsread comments
1 2 3 4 5
please rate
add to favorites
launch autoscroll
font size
0
reset
guitar tuner
Autoscroll
slow
fast
+/-
esc
set tempo
stop
Help us to improve Ultimate-Guitar.com Take our survey!
×
Band- Default
Song- Count On Me

Tuning: Standard (B E A D G)

G|---------------------------||
D|*--------------------------||
A|---------------------------||
E|*---3-4-6------------------||
B|--4-------4-4-4--4-4--4-4--||

G|----------------------------------------------------------------||
D|--------------------------------6---6--------------------------*||
A|------------------------------6---6-------2h4p2---4-4-4---------||
E|---3-4-6--------------------4-----------2-------4-------4-4-4--*||
B|-4-------4-4-4--4-4--4-4----------------------------------------|| x 3

G|----------------------------------------------------------------||
D|----------------------------------------------------------------||
A|-3-3-3-3-1-1-1-1-1----------------------------------------------||
E|-------------------4-4-4-4-4-4/16-16-16-16-16-16-16-------------||
B|----------------------------------------------------------------||

G|----------------------------------------------------------------||
D|----------------------------------------------------------------||
A|-----------------------------4-4-4-4-4--------------------------||
E|-----------6-6-6-4-6-6-6-4-6-----------6-4-4-4-4-4--------------||
B|-4-4-4-4-6------------------------------------------------------|| x 2

G|---------------------------||
D|*--------------------------||
A|---------------------------||
E|*---3-4-6------------------||
B|--4-------4-4-4--4-4--4-4--||

G|----------------------------------------------------------------||
D|--------------------------------6---6--------------------------*||
A|------------------------------6---6-------2h4p2---4-4-4---------||
E|---3-4-6--------------------4-----------2-------4-------4-4-4--*||
B|-4-------4-4-4--4-4--4-4----------------------------------------|| x 2

G|----------------------------------------------------------------||
D|----------------------------------------------------------------||
A|-3-3-3-3-1-1-1-1-1----------------------------------------------||
E|-------------------4-4-4-4-4-4/16-16-16-16-16-16-16-------------||
B|----------------------------------------------------------------||

G|----------------------------------------------------------------||
D|----------------------------------------------------------------||
A|-----------------------------4-4-4-4-4--------------------------||
E|-----------6-6-6-4-6-6-6-4-6-----------6-4-4-4-4-4--------------||
B|-4-4-4-4-6------------------------------------------------------|| x 2

G|----------------------------------------------------------------||
D|----------------------------------------------------------------||
A|-3-3-3-3-1-1-1-1-1----------------------------------------------||
E|-------------------4-4-4-4-4-4/16-16-16-16-16-16-16-------------||
B|----------------------------------------------------------------||

G|----------------------------------------------------------------||
D|----------------------------------------------------------------||
A|-----------------------------4-4-4-4-4--------------------------||
E|-----------6-6-6-4-6-6-6-4-6-----------6-4-4-4-4-4--------------||
B|-4-4-4-4-6------------------------------------------------------|| x 2

G|----------------------------------------------------------------||
D|----------------------------------------------------------------||
A|-3-3-3-3-1-1-1-1-1----------------------------------------------||
E|-------------------4-4-4-4-4-4/16-16-16-16-16-16-16-------------||
B|----------------------------------------------------------------||

G|----------------------------------------------------------------||
D|----------------------------------------------------------------||
A|-----------------------------4-4-4-4-4--------------------------||
E|-----------6-6-6-4-6-6-6-4-6-----------6-4-4-4-4-4--------------||
B|-4-4-4-4-6------------------------------------------------------|| x 3

G|----------------------------------------------------------------||
D|----------------------------------------------------------------||
A|-----------------------------4-4-4-4-4--------------------------||
E|-----------6-6-6-4-6-6-6-4-6-----------6-4-4-4-4-4--------------||
B|-4-4-4-4-6------------------------------------------4~----------||
Suggest correction
Give kudos to tab author, rate the tab!
1 2 3 4 5
comments
print report bad tab
2 comments total.
0 reply
AsteriX018 176 wrote on January 17 2006, 09:24 am

umm...I have no idea where to come in on this song and I don't know how your verses match with his...It has the basic idea, but I think I'm going to try and redo it

0 reply
TacticalMuffin 31 wrote on December 31 2006, 04:31 pm

This sounds accurate enough to me, but it's tough to figure out the timings. Try to work on that.

guest
You may want to rate the tab now too:
select rating
Wanna post a correction for this tab? Suggest correction